Oops, an error
Loading. Please wait.

Last Goodbye Tab

744 views 1 this week
1 commentread comment
1 2 3 4 5
excellent!
x 1
add to favorites
launch autoscroll
font size
0
reset
how to read this tab
guitar tuner
Tab Pro tools
  • play this tab
  • loop segment
  • change instrument
  • show fretboard
  • metronome
Autoscroll
slow
fast
+/-
esc
set tempo
stop
Contributor
Difficulty
Tuning
intermediate
D A D G B E

                             Last Goodbye - My American Heart

Tabbed by:heyitsthemokid

Tuning:Drop D

some parts of this song are palm mutedd...i was to lazy to label those parts so yeah. 
done by ear. comments are good. thanks :]

e|------------|
B|------------|
G|------------|
D|--4---------|
A|--2---(x18)-|
D|--4---------|

e|-------------------------------------------------|
B|-------------------------------------------------|
G|-------------------------------------------------|
D|-11--------11--------7------9------7----5--------|
A|-9--(x12)--0--(x12)--7-(x4)-7-(x4)-7----5-(x12)--|
D|-9---------0---------7------7------7----5--------|

e|----------------------------------------------------------------------------------------|
B|----------------------------------------------------------------------------------------|
G|--11--11----11--11-----9-9---9-9----6/-7-/-6----11--11----11--11---9-9---9-9---14---14--|
D|--x---x-----x---x------x-x---x-x----x/-x-/-x----x---x-----x---x----x-x---x-x---x----x---|
A|--9---9-----9---9------7-7---7-7----4/-5-/-4----9---9-----9---9----7-7---7-7---12---12--|
D|----------------------------------------------------------------------------------------|

e|-----------------------------------------------------------|
B|-----------------------------------------------------------|
G|-----------------------------------------------------------|
D|--5-5--5-5-----9-9---9-9----12-----5-5--5-5---9--12-12--7--|
A|--5-5--5-5-----9-9---9-9----12-----5-5--5-5---9--12-12--7--|
D|--5-5--5-5-----9-9---9-9----12-----5-5--5-5---9--12-12--7--|

e|----------------|
B|----------------|
G|----7--------7--|
D|----5--------5--|  Strum softly on the first chord.
A|----5--------5--|
D|-------------7--|

e|---------------------------------------------------------------------------------------------------------------------|
B|---------------------------------------------------------------------------------------------------------------------|
G|---------------------------------------------------------------------------------------------------------------------|
D|--11-11-11-11-11-11-11-11-11-11--12--0-0-0--12--0-0-0--12--0-0--0-0-0-0-0-0-0-0-0-0--5--5-5-5-5-5-5-5-5-5-5-5-5-5-5--|
A|--9--9--9--9--9--9--9--9--9--9---12--0-0-0--12--0-0-0--12--0-0--0-0-0-0-0-0-0-0-0-0--5--5-5-5-5-5-5-5-5-5-5-5-5-5-5--|
D|--9--9--9--9--9--9--9--9--9--9---12--0-0-0--12--0-0-0--12--0-0--0-0-0-0-0-0-0-0-0-0--5--5-5-5-5-5-5-5-5-5-5-5-5-5-5--|

e|--------------------------------------------------------------------------------|
B|--------------------------------------------------------------------------------|
G|-----------------------------------------------------------------------7--------|
D|--11------7-------0-0-0-0--4-4--4-4---0-0-0-0--4-4--4-4---2-2-2-2--0---5--------|
A|--9--x12--0-x12---0-0-0-0--2-2--2-2---0-0-0-0--2-2--2-2---2-2-2-2--0---5--(x2)--|
D|--9-------0-------0-0-0-0--4-4--4-4---0-0-0-0--4-4--4-4---2-2-2-2--0---5--------|

e|------------------------------------------------|
B|------------------------------------------------|
G|------------------------------------------------|
D|-11--------11--------7----9-------7----5--------|
A|-9--(x12)--0--(x12)--7-x4-7--(x4)-7----5-(x12)--|
D|-9---------0---------7----7-------7----5--------|

e|--------------------------------------------------------------------------------------------|
B|--------------------------------------------------------------------------------------------|
G|---11--11----11--11-----9-9---9-9----6/-7-/-6----11--11----11--11---9-9---9-9---14---14-----|
D|---x---x-----x---x------x-x---x-x----x/-x-/-x----x---x-----x---x----x-x---x-x---x----x--(x2)|
A|---9---9-----9---9------7-7---7-7----4/-5-/-4----9---9-----9---9----7-7---7-7---12---12-----|
D|--------------------------------------------------------------------------------------------|

e|-----------------------------------------------------------------------------------------------------------|
B|-----------------------------------------------------------------------------------------------------------|
G|---7--9/-11--9---7--9--7--7--9/-11--9--7--9--7--7--------7--9/-11--9---7--9--7--7----9/-11--9--7--9--7--7--|
D|----------------------------------------------------0------------------------------9-----------------------|
A|----------------------------------------------------0------------------------------------------------------|
D|----------------------------------------------------0------------------------------------------------------|
Effects are you used in the measure above.

e|-----------------------------------------------------------------------------------------------------------------------|
B|-----------------------------------------------------------------------------------------------------------------------|
G|-----------------------------------------------------------------------------------------------------------------------|
D|--11-11-11-11-11-11-11-11-11-11----12--0-0-0--12--0-0-0--12--0-0--0-0-0-0-0-0-0-0-0-0--5--5-5-5-5-5-5-5-5-5-5-5-5-5-5--|
A|--9--9--9--9--9--9--9--9--9--9-----12--0-0-0--12--0-0-0--12--0-0--0-0-0-0-0-0-0-0-0-0--5--5-5-5-5-5-5-5-5-5-5-5-5-5-5--|
D|--9--9--9--9--9--9--9--9--9--9-----12--0-0-0--12--0-0-0--12--0-0--0-0-0-0-0-0-0-0-0-0--5--5-5-5-5-5-5-5-5-5-5-5-5-5-5--|

e|---------------------------------------------------------------------------------------|
B|---------------------------------------------------------------------------------------|
G|-------------------------------------------------------------------------7-------------|
D|--11--------7-----------0-0-0-0--4-4--4-4---0-0-0-0--4-4--4-4---2-2-2-2--0---5---------|
A|--9--(x12)--0-(x12)-----0-0-0-0--2-2--2-2---0-0-0-0--2-2--2-2---2-2-2-2--0---5---(x2)--|
D|--9---------0-----------0-0-0-0--4-4--4-4---0-0-0-0--4-4--4-4---2-2-2-2--0---5---------|

e|----------------------------------------------------------------------|
B|----------------------------------------------------------------------|
G|----------------------------------------------------------------------|
D|--11-------------0---------------7----------------5-------------------|
A|--9--------------0---------------7----------------5-------------------|
D|--9--------------0---------------7----------------5-------------------|

e|------------------------------|
B|------------------------------|
G|------------------------------|
D|--11---------7-------------5--|
A|--9--(x24)---7--(x12)------5--|
D|--9----------7-------------5--|

e|-----------------------------------------------------------------|
B|-----------------------------------------------------------------|
G|-----------------------------------------------------------------|
D|-11----11-11-11-11-11----11----11-11-11-11-11----11----11-11-11--|
A|-9-----9--9--9--9--9-----9-----9--9--9--9--9-----9-----9--9--9---|
D|-9-----9--9--9--9--9-----9-----9--9--9--9--9-----9-----9--9--9---|

e|-------------------------------------------------------|
B|-------------------------------------------------------|
G|-------------------------------------------------------|
D|--0-----0-0-0-0-0-----0-----0-0-0-0-0------0----0-0-0--|
A|--0-----0-0-0-0-0-----0-----0-0-0-0-0------0----0-0-0--|
D|--0-----0-0-0-0-0-----0-----0-0-0-0-0------0----0-0-0--|

e|--------------------------------------------------------|
B|--------------------------------------------------------|
G|--------------------------------------------------------|
D|--7-----7-7-7-7-7-----7-----7-7-7-7-7------7-----7-7-7--|
A|--7-----7-7-7-7-7-----7-----7-7-7-7-7------7-----7-7-7--|
D|--7-----7-7-7-7-7-----7-----7-7-7-7-7------7-----7-7-7--|

e|-----------------------------------------------------|
B|-----------------------------------------------------|
G|-----------------------------------------------------|
D|--5-----5-5-5-5-5-----5-----5-5-5-5-5-------5--5--5--|
A|--5-----5-5-5-5-5-----5-----5-5-5-5-5-------5--5--5--|
D|--5-----5-5-5-5-5-----5-----5-5-5-5-5-------5--5--5--|

e|---------------------------------------------------------|
B|---------------------------------------------------------|
G|---------------------------------------------------------|
D|--11-11-11---0----5-5-5-5-----------7-7-7-7-7-7-7-7-7-7--|
A|--9--9--9----0----5-5-5-5--(x3)-----7-7-7-7-7-7-7-7-7-7--|
D|--9--9--9----0----5-5-5-5-----------7-7-7-7-7-7-7-7-7-7--|

e|-------------------------------------------------------------|
B|-------------------------------------------------------------|
G|-------------------------------------------------------------|
D|--11-11--11-11--11-11--11-11--11-11--11-11--11-11--11-11--11-|
A|--9--9---9--9---9--9---9--9---9--9---9--9---9--9---9--9---9--|
D|--9--9---9--9---9--9---9--9---9--9---9--9---9--9---9--9---9--|
comments
We did not receive enough feedback on this tab! Please rate:
print report bad tab
1 2 3 4 5
1 comment total.
0 reply
arizonagreentea wrote on October 4 2007, 01:59 pm

you didn't ear this.

I want to post or [tab]
guest
You may want to rate the tab now too:
select rating
Please do not post tabs as comments. Select "correction" instead!