Oops, an error
Loading. Please wait.

Moving On Tab

version 1
version 1

Whole song

1,000 views 1 this week
1 commentread comment
1 2 3 4 5
worth learning
x 1
add to favorites
launch autoscroll
font size
0
reset
how to read this tab
guitar tuner
Tab Pro tools
  • play this tab
  • loop segment
  • change instrument
  • show fretboard
  • metronome
Autoscroll
slow
fast
+/-
esc
set tempo
stop
Difficulty
intermediate
Guitar I

e-------8-8-8---------8-8-8-----7--------7-7-7-------7-7-7-----7------|
B-------7-7-7---------7-7-7-----7--------7-7-7-------7-7-7-----7------|
G-------5-5-5---------5-5-5-----5--------5-5-5-------5-5-5-----5------|
D-5-5-5---------5-5-5--------5-5---3-3-3-------3-3-3-------3-3--------|
A-5-5-5---------5-5-5--------5-5---3-3-3-------3-3-3-------3-3--------|
E-5-5-5---------5-5-5--------5-5---3-3-3-------3-3-3-------3-3--------|
                                                                         X2
e-------8-8-8---------8-8-8------8-----7----8-8---8-8--7-7------------|
B-------7-7-7---------7-7-7------7-----7----7-7---7-7--7-7------------|
G-------5-5-5---------5-5-5------5-----5----5-5---5-5--5-7------------|
D-5-5-5---------5-5-5--------5-5---5----5-------5-----5---------------|
A-5-5-5---------5-5-5--------5-5---5----5-------5-----5---------------|
E-5-5-5---------5-5-5--------5-5---5----5-------5-----5---------------|


Guitar II

solo thing
e----------------------------------------------------------------------|
B-------------------15-------------------------------------------------|
G--------12~----12-----14~-16h14-14h12---------12----15-12-12-12s14----|
D--12h14-----14--------------------------12h14----14----12-12-12s14----|
A----------------------------------------------------------------------|
E----------------------------------------------------------------------|
?
e------------------------------------------8---88--8---8--88---8-------|
B-------------------15---------------------7---77--7---7--77---7-------|
G--------12~----12-----14~-16h14-14h12-----5---55--5---5--55---5-------|
D--12h14-----14--------------------------00---0---0---0---0---0--------|
A----------------------------------------00---0---0---0---0---0--------|
i shall finish this later

comments
We did not receive enough feedback on this tab! Please rate:
print report bad tab
1 2 3 4 5
1 comment total.
0 reply
heyitsthemokid wrote on August 3 2007, 08:16 pm

doesnt sound right.
but i saw your second one. its better.

I want to post or [tab]
guest
You may want to rate the tab now too:
select rating
Please do not post tabs as comments. Select "correction" instead!