Oops, an error
Loading. Please wait.

Postcards Tab

69 views 1 this week
no commentswrite comment
1 2 3 4 5
3 more votes to show rating
add to favorites
launch autoscroll
font size
0
reset
how to read this tab
guitar tuner
Autoscroll
slow
fast
+/-
esc
set tempo
stop
Help us to improve Ultimate-Guitar.com Take our survey!
×
Difficulty
Tuning
intermediate
D A D G B E
I dont like the other solo posted (Sorry) This is the way I learned it and I think it 
a little more correct.


--------------------------|------------------------|------------------------------------------|
--------------------------|------------------------|---------------------------15----17----15-|
-----12----14(b)15-12-14--|----12----14(b)15-12----|----12----14(b)15-12-14/16----16----16----|
--14----14----------------|-14----14------------14-|-14----14---------------------------------|
--------------------------|------------------------|------------------------------------------|
--------------------------|------------------------|------------------------------------------|

--------------------------|------------------------|---------------------------------------------|
--------------------------|------------------------|---------------------------15----17----15-17~|
-----12----14(b)15-12-14--|----12----14(b)15-12----|----12----14(b)15-12-14/16----16----16-------|
--14----14----------------|-14----14------------14-|-14----14------------------------------------|
--------------------------|------------------------|---------------------------------------------|
--------------------------|------------------------|---------------------------------------------|
Suggest correction
Give kudos to tab author, rate the tab!
1 2 3 4 5
comments
print report bad tab
guest
You may want to rate the tab now too:
select rating
Wanna post a correction for this tab? Suggest correction