Oops, an error
Loading. Please wait.

Runaway Tab

671 views 3 this week
no commentswrite comment
1 2 3 4 5
please rate
add to favorites
launch autoscroll
font size
0
reset
how to read this tab
guitar tuner
Autoscroll
slow
fast
+/-
esc
set tempo
stop
Help us to improve Ultimate-Guitar.com Take our survey!
×
Author
Difficulty
Tuning
novice
C G C F A D
-------------------------------------------------------------------------------
                        RUNAWAY - My American Heart
-------------------------------------------------------------------------------
Tabbed by:Pieper1
Email:skater4life8118@yahoo.com

Tuning:Drop C

This is great song by My American. Definitely one of my favorites.
They are great band. I love their album. I could go on...but lets just get 
to the tab

This tab should be 100% correct. I've played along with the song a lot and it
sounds perfect. Questions and Comments are welcome.

Enjoy!

Intro
eb|------------------|------------------|------------------|------------------|
Bf|------------------|------------------|------------------|------------------|
F#|------------------|------------------|------------------|------------------|
C#|------------------|------------------|------------------|------------------|
G#|-222333-----------|-222333-----(5599)|-222333-----------|-222333-----------|
C#|-------0000000000-|-------0000000000-|-------0000000000-|-------0000000000-|
  pm^^^^^^^^^^^^^^^^   ^^^^^^^^^^^^^^^^   ^^^^^^^^^^^^^^^^   ^^^^^^^^^^^^^^^^ 

eb|------------------|------------------|------------------|------------------|
Bb|------------------|------------------|------------------|------------------|
F#|------------------|------------------|------------------|------------------|
C#|-4445550--0000000-|-4445550--0000000-|-4445550--0000000-|-4444444455555555-|
G#|-2223330--0000000-|-2223330--0000000-|-2223330--0000000-|-2222222233333333-|
C#|-------0--0000000-|-------0--0000000-|-------0--0000000-|------------------|


Verse 1
eb|------------|------------------|
Bb|------------|------------------|
F#|---7----7---|------------------|
c#|-0-x0---x00-|-5555555555555555-|
G#|-0-50---500-|-3333333355555555-|
C#|-0--0----00-|---------55555555-|
               pm^^^^^^^^^^^^^^^^
    ....If you...read between the..
    ....You......times not on our..
    ....Gotta....movin', movin.....
    ....Gotta go.the world is......

Pre-Chorus
eb|------------------|------------------|
Bb|------------------|------------------|
F#|------------------|------------------|
C#|-4444444444444444-|-5555555555555555-|
G#|-2222222222222222-|-5555555555555555-|
C#|------------------|-5555555555555555-|
  pm^^^^^^^^^^^^^^^^   ^^^^^^^^^^^^^^^^
    ....so now.........can i say?......
 
eb|------------------|------------------|
Bb|------------------|------------------|
F#|------------------|------------------|
C#|-4444444444444444-|-5555555555555555-|
G#|-2222222222222222-|-5555555555555555-|
C#|------------------|-5555555555555555-|
 pm^^^^^^^^^^^^^^^^^   ^^^^^^^^^^^^^^
   ....let's focus........let's focus..

Chorus
eb|------------------|------------------|-----------------|------------------|
Bb|------------------|------------------|-----------------|------------------|
F#|------------------|------------------|-----------------|------------------|
C#|-0000000000000000-|-5555555555555555-|-000000000000000-|--55--555-55--555-|
G#|-0000000000000000-|-5555555555555555-|-000000000000000-|--33--333-55--555-|
C#|-0000000000000000-|-5555555555555555-|-000000000000000-|----------55--555-|
    ...We could run.......We could run.......theres no......we should stay..

eb|------------------|------------------|-----------------|------------------|
Bb|------------------|------------------|-----------------|------------------|
F#|------------------|------------------|-----------------|------------------|
C#|-0000000000000000-|-5555555555555555-|-000000000000000-|--55--555-55--555-|
G#|-0000000000000000-|-5555555555555555-|-000000000000000-|--33--333-55--555-|
C#|-0000000000000000-|-5555555555555555-|-000000000000000-|----------55--555-|
    ...We could run.......We could run.......theres no......we should stay..

Interlude
eb|------------------|------------------|
Bf|------------------|------------------|
F#|------------------|------------------|
C#|------------------|------------------|
G#|-222333-----------|-222333-----------|
C#|-------0000000000-|-------00000000---|
  pm^^^^^^^^^^^^^^^^   ^^^^^^^^^^^^^^

Verse 2
eb|------------|------------------|
Bb|------------|------------------|
F#|---7----7---|------------------|
c#|-0-x0---x00-|-5555555555555555-|
G#|-0-50---500-|-3333333355555555-|
C#|-0--0----00-|---------55555555-|
               pm^^^^^^^^^^^^^^^^
    ....It's.....cross the.......
    ....We live..to save.........
    ....It's.....cross the.......
    ....We live..to save.........

Pre-Chorus
eb|------------------|------------------|
Bb|------------------|------------------|
F#|------------------|------------------|
C#|-4444444444444444-|-5555555555555555-|
G#|-2222222222222222-|-5555555555555555-|
C#|------------------|-5555555555555555-|
  pm^^^^^^^^^^^^^^^^   ^^^^^^^^^^^^^
    ....so now.........can i say?......
 
eb|------------------|------------------|
Bb|------------------|------------------|
F#|------------------|------------------|
C#|-4444444444444444-|-5555555555555555-|
G#|-2222222222222222-|-5555555555555555-|
C#|------------------|-5555555555555555-|
 pm^^^^^^^^^^^^^^^^^   ^^^^^^^^^^^^^^
   ....let's focus........let's focus..

Chorus
eb|------------------|------------------|-----------------|------------------|
Bb|------------------|------------------|-----------------|------------------|
F#|------------------|------------------|-----------------|------------------|
C#|-0000000000000000-|-5555555555555555-|-000000000000000-|--55--555-55--555-|
G#|-0000000000000000-|-5555555555555555-|-000000000000000-|--33--333-55--555-|
C#|-0000000000000000-|-5555555555555555-|-000000000000000-|----------55--555-|
    ...We could run.......We could run.......theres no......we should stay..

eb|------------------|------------------|-----------------|------------------|
Bb|------------------|------------------|-----------------|------------------|
F#|------------------|------------------|-----------------|------------------|
C#|-0000000000000000-|-5555555555555555-|-000000000000000-|--55--555-55--555-|
G#|-0000000000000000-|-5555555555555555-|-000000000000000-|--33--333-55--555-|
C#|-0000000000000000-|-5555555555555555-|-000000000000000-|----------55--555-|
    ...We could run.......We could run.......theres no......we should stay..

Interlude
eb|------------|------------|
Bb|------------|------------|
F#|------------|------------|
C#|-4--4--4--4-|-5--5--5--5-|
G#|-2--2--2--2-|-3--3--3--3-|
C#|------------|------------|
    .......................
    .......................
    If we get....We'll be..
    If we get....We'll be..

Pre-Chorus (2)
eb|-------------------|
Bb|-------------------|
F#|-------------------|
C#|-44-55-00--00--0-0-|
G#|-22-33-00--00--0-0-|
C#|-------00--00--0-0-|
  pm^^ ^^ ^^  ^^  ^ ^
    ....so now.......
    what can i say...
    Let's focus......    
 
eb|-----------------|
Bb|-----------------|
F#|-----------------|
C#|-----------------|
G#|-222333----------|
C#|-------000000000-|
 pm^^^^^^^^^^^^^^
   ....let's focus

Chorus
eb|------------|------------|------------|-------------|
Bb|------------|------------|------------|-------------|
F#|------------|------------|------------|-------------|
C#|-0--0--0--0-|-5--5--5--5-|-0--0--0--0-|--5--5--5--5-|
G#|-0--0--0--0-|-5--5--5--5-|-0--0--0--0-|--3--3--5--5-|
C#|-0--0--0--0-|-5--5--5--5-|-0--0--0--0-|--------5--5-|
    ...We could.....We could.....theres no..we should.

eb|------------|------------|------------|------------------|
Bb|------------|------------|------------|------------------|
F#|------------|------------|------------|------------------|
C#|-0--0--0--0-|-5--5--5--5-|-0--0--0--0-|--55--555-55--555-|
G#|-0--0--0--0-|-5--5--5--5-|-0--0--0--0-|--33--333-55--555-|
C#|-0--0--0--0-|-5--5--5--5-|-0--0--0--0-|----------55--555-|
    ...We could.....We could.....theres no..we should stay..

Outro
eb|-----------------|-----------------|-----------------|------------|
Bb|-----------------|-----------------|-----------------|------------|
F#|-----------------|-----------------|-----------------|------------|
C#|-4445550--00--00-|-4445550--00--00-|-4445550--00--00-|-44--55-0~~-|
G#|-2223330--00--00-|-2223330--00--00-|-2223330--00--00-|-22--33-0~~-|
C#|-------0--00--00-|-------0--00--00-|-------0--00--00-|--------0~~-|

There ya go. It's pretty straight forward. I put the words on there
for you convenience.


| /  slide up
| \  slide down
| h  hammer-on
| p  pull-off
| ~  vibrato
| +  harmonic
| x  Mute note
===============================================================================
Suggest correction
Give kudos to tab author, rate the tab!
1 2 3 4 5
comments
print report bad tab
guest
You may want to rate the tab now too:
select rating
Please do not post tabs as comments. Select "correction" instead!