Oops, an error
Loading. Please wait.

Shake Tab

version 1
version 1

Whole song

Interactive

5,702 views 3 this week
1 commentread comment
1 2 3 4 5
x 8
add to favorites
launch autoscroll
font size
0
reset
how to read this tab
guitar tuner
Autoscroll
slow
fast
+/-
esc
set tempo
stop
Help us to improve Ultimate-Guitar.com Take our survey!
×
Author
Difficulty
Tuning
intermediate
D A D G B E
--------------------------------------------------------------
          The Shake (Awful Feeling) - My American Heart
--------------------------------------------------------------
Tabbed by: Donnie San Diego
Email:imsexydonnie@msn.com

Tuning: Drop D

INTRO

e|-----------------------------------------------------------|
B|--------8---8---8-----7----------------5-5---5-----4-----5-|
G|-----------------------------------------------------------|
D|--------------------------5h7p5\4p0------------------------|
A|------7---7---7---7-5---5-----------3--3-3-3-3-3-2-2-2-3-3-|
E|-14\8------------------------------------------------------|

VERSE

e|-----------------------------------------------------------|
B|-----8-x-8-x-8-----8-x-8-x-8-----7-x-7-x-7-----------------|
G|-----------------------------------------------------------|
D|-----------------------------------------------------------|
A|-7-x-7-x-7-x-7-5-x-7-x-7-x-7-3-x-5-x-5-x-5-2-x-2-3-x-3/7---|
E|-----------------------------------------------------------|

PRE CHORUS

e|-----------------------------------------------------------|
B|------3----------------------------------------------------|
G|----5------------------------------------------------------|
D|--0-------(REPEAT)-----------------------------------------|
A|-----------------------------------------------------------|
E|---------------------222222--------------------------------|

CHORUS

e|-----------------------------------------------------------|
B|-----------------------------------------------------------|
G|-----------------------------------------------------------|
D|-----------------------------------------------------------|
A|-----------------------------------------------------------|
E|-22222222/5-5-55-5/777777-22222222/55555555\00000000--14\8-|

BRIDGE

e|-----------------------------------------------------------|
B|-8-8---8-8---8-8---8-8-------------------------------------|
G|-----------------------------------------------------------|
D|-----------------------------------------------------------|
A|-7-7---7-7---7-7---7-7---(REPEAT)--------------------------|
E|-----------------------------------------------------------|

OUTRO

e|-----------------------------------------------------------|
B|--4-5-7-8\0------------------------------------------------|
G|-----------------------------------------------------------|
D|-----------------------------------------------------------|
A|--2-3-5-7\0------------------------------------------------|
E|-----------------------------------------------------------|



| /  slide up
| \  slide down
| h  hammer-on
| p  pull-off
| ~  vibrato
| +  harmonic
| x  Mute note
==============================================================
Suggest correction
comments
print report bad tab
1 comment total.
0 reply
XxShredderxX 114 Jun 19, 2007 03:02 AM

this tab is missing a lot of content, but good rough draft to work with

guest
You may want to rate the tab now too:
select rating
Wanna post a correction for this tab? Suggest correction