Oops, an error
Loading. Please wait.

Shake Tab

version 2
version 2

Whole song

Interactive

9,315 views 1 this week
5 commentsread comments
1 2 3 4 5
excellent!
x 7
add to favorites
launch autoscroll
font size
0
reset
how to read this tab
guitar tuner
Tab Pro tools
  • play this tab
  • loop segment
  • change instrument
  • show fretboard
  • metronome
×
Best way to learn
"Shake"
Autoscroll
slow
fast
+/-
esc
set tempo
stop
Difficulty
novice
Artist: My American Heart
Album: Hiding Inside the Horrible Weather
Song: The Shake (Awful Feeling)
Tabber: Ray
Tuning: Standard (EADGBe)

Legend:
\ = Slide Down
/ = Slide Up
h = hammer on
p = pull off
x = mute
~ = vibrato

This is a tab of The Shake (Awful Feeling) by My American Heart. It's pretty close to
Jesse really plays, although I'm not too sure about the verses. Sounds good for what it's
Order of the parts is on the bottom. If you wanna see a youtube video of me playing it 
what I play is a bit different than the tab) then you can check it out here:
Any questions or anything, just leave me a comment on that video. Thanks for checkin it 
Oh, and keep supporting MAH. Great guys.

Intro:
e------------------------------------------------------|
B-------------------------------------8-8--8---7---8---|
G------12-12----11--11----------------9-9--9---8---9---|
D------------------------------------------------------|
A-----------9-10--------10h12p10-9\7-------------------|
E-12\-0--0--------10--10------------8-----8-8-7-7-8-8--|

e-----------------------------------------------------|
B----------------------------------8-8--8--7-7-7-7-7--|
G---12-12----11--11----------------9-9--9--8-8-8-8-8--|
D-----------------------------------------------------|
A--------9-10--------10h12p10-9\7---------------------|
E--0--0--------10--10------------8-----8-8-7-7-7-7-7--|

Verses:
e------------------------------------------------------|
B-----12-12-12----12-12-12-----10-10-10--7---7/8-------|
G-----12-12-12----12-12-12-----11-11-11--8---8/9-------|
D---x------------x------------x------------x-----------|
A---x------------x------------x------------x-----------|
E-0-x----------0-x---------10-x----------7-x-7/8-------|

Pre-Chorus:
e-------------------------------------------------------------------|
B---(can play octaves instead)--------------------------------------|
G-(5)/------------(7)/------(9)---------------------------7-7-7-7---|
D-(x)/------------(x)/------(x)---------------------------7-7-7-7---|
A--3~/-------------5~/-------7~---------------------------5-5-5-5---|
E-------------------------------------------------------------------|
    I'll throw my thoughts into the sea... will very soon be mine

Chorus:
e------------------------------------------------|
B--8---------------------------------------------|
G--9-----------------------------5---------------|
D--9---------------5-x-5-5-x-5---5---------------|
A--7---------------5-x-5-5-x-5---x---------------|
E--0---------------3-x-3-3-x-3---5---------------|
   I can't seem to shake this    awful feeling

e---------------------------------------------|
B--8------------------------------------------|
G--9------------------------------5---5-------|
D--9------------5-----------------5---5-------|
A--7------------5-----------------3---x-------|
E--0------------3---------------------5-------|
   you wore you wore you wore me out    and I can't believe

Bridge:
e--------------------------------|
B---------------------7----------|
G-12----------11------8----------|
D-14-----------------------------|
A--------------------------------|
E--0----------10------7----------|
           no I can't seem to...

e--------------------------------|
B--------------8------7----------|
G-12-----------9------8----------|
D-14-----------------------------|
A--------------------------------|
E--0-----------8------7----------|
...shake  this awful feeling

Ending:
e--------------------|
B--------------------|
G---8--9--11--12\----|
D--------------------|
A--------------------|
E---7--8--10--11\----|

Parts:

Intro x2
Verse x2
Pre-Chorus x4
Chorus x1
Intro x1
Verse x2
Pre-Chorus x2
Chorus x2
Bridge x1
Pre-Chorus x4
Chorus x2
Intro x3
Ending x1
comments
print report bad tab
5 comments total. Showing first comments.
0 reply
heyitsthemokid wrote on October 28 2007, 05:06 pm

not right.

0 reply
XxShredderxX wrote on November 6 2007, 05:07 pm

notbad

0 reply
Pyrest wrote on February 12 2008, 06:23 pm

its good.
but i dont like the introduction
i think version 1 is perfect for the intro.

I want to post or [tab]
guest
You may want to rate the tab now too:
select rating
Please do not post tabs as comments. Select "correction" instead!