Oops, an error
Loading. Please wait.

The Shake Tab

version 1
version 1

Whole song

4,043 views 3 this week
3 commentsread comments
1 2 3 4 5
excellent!
x 3
add to favorites
launch autoscroll
font size
0
reset
how to read this tab
guitar tuner
Autoscroll
slow
fast
+/-
esc
set tempo
stop
Help us to improve Ultimate-Guitar.com Take our survey!
×
Contributor
Tuning
D A D G B E
The Shake
MY AMERICAN HEART (Formally known as "No Way Out")
The meaning in the makeup 2005
I am 100% sure this is right its exactly the same as clint
and jeremy played it live.
tuning dropped D

intro

e--------------------------|
B-------8---8--------------|
G--------------------------|
D--------------------------|
A-19/-7---7--9-19-9--------|
D--------------------------|

e--------------------------|
B---7---10-8-7-5-----------|
G--------------------------|
D--------------------------|
A-5---5--------------------|
D--------------------------|

e--------------------------|
B---55---5-----4-----5-----|
G--------------------------|
D--------------------------|
A-3----3---3-2---2-3---3---|
D------------------------2-|

e-------------------|
B-------8---8-------|
G-------------------|
D-------------------|
A-19/-7---7--9-19-9-|
D-------------------|

e-----------------|
B---7---10-8-7-5--|
G-----------------|
D-----------------|
A-5---5-----------|
D-----------------|

e--------------------|
B---55---5-----------|
G--------------------|
D--------------------|
A-3----3---22222222--|
D--------------------|
repeat


verse

e---7-7-7---7-7-7---2-2-2------|
B---8-8-8---8-8-8---3-3-3------|
G------------------------------|
D-----------------0--------x-x-|
A-7-------7---------------2x3x-|
D--------------------------x-x-|

e---7-7-7---7-7-7---2-2-2------------|
B---8-8-8---8-8-8---3-3-3------------|
G------------------------------------|
D-----------------0------------------|
A-7-------7---------------3333-2222--|
D------------------------------------|

pre chorus

e---------------------------------------|
B------3-----3-----3-----3--------------|
G----5-----5-----5-----5---x2-----------|
D--0-----0-----0-----0----------444444--|
A-------------------------------222222--|
D---------------------------------------|

chorus

e-----------------------------------------------------------|
B-----------------------------------------------------------|
G-----------------------------------------------------------|
D-----------------------------------------------------------|
A-22222222/5-5-55-5/777777-22222222/55555555/00000000-------|
D-22222222/5-5-55-5/777777-22222222/55555555/00000000--14\8-|

bridge

e-----------------------|
B-8-8---8-8---8-8---8-8-|
G-x-x---x-x---x-x---x-x-|
D-x-x---x-x---x-x---x-x-|
A-7-7---7-7---7-7---7-7-|
E-----------------------|
repeat

ending
e--------------|
B--4-5-7-8\0---|
G--x-x-x-x-x---|
D--x-x-x-x-x---|
A--2-3-5-7\0---|
E--------------|
comments
We did not receive enough feedback on this tab! Please rate:
print report bad tab
1 2 3 4 5
3 comments total.
+2 reply
alexhockey 51 wrote on June 19 2008, 04:13 am

omg jeremy is sooo hot i like love this song tooxxxxxxx

0 reply
wongtong 119 wrote on January 25 2009, 06:18 pm

What's with the 19/7?

+1 reply
dot 2 dot 26 wrote on April 26 2009, 02:11 am

its a slide ?????????????

I want to post or [tab]
guest
You may want to rate the tab now too:
select rating
Please do not post tabs as comments. Select "correction" instead!