Oops, an error
Loading. Please wait.

The Shake Tab

version 2
version 2

Whole song

217 views 1 this week
no commentswrite comment
1 2 3 4 5
please rate
add to favorites
launch autoscroll
font size
0
reset
how to read this tab
guitar tuner
Autoscroll
slow
fast
+/-
esc
set tempo
stop
Help us to improve Ultimate-Guitar.com Take our survey!
×
Author
Difficulty
hi all

this is my version of the shake by my american heart
this is a really catchy song and its really easy to play

standard tuning (EADGBe)

intro/main riff
--------------------------------------------------------------|
---------8-8----------7---------------5-5---5-----4-----5-----|
--------------------------------------5-5---5-----4-----5-----|
--------------------------5/7-5-4p0---------------------------|
-------7-----9-10-9/5---5-----------3-----3---3/2---2/3---3/--|
--12/---------------------------------------------------------|

main riff
-----------------------------------------------------|
----8-8----------7---------------5-5---5-------------|
---------------------------------5-5---5---44444444--|
---------------------5/7-5-4p0-------------44444444--| x2
--7-----9-10-9/5---5-----------3-----3---3/22222222--|
-----------------------------------------------------|


verse
-------------------------------------------------|
----x-8-8-8----x-8-8-8----x-7-7-7----x-----x-----|
----x-9-9-9----x-9-9-9----x-7-7-7--4-x-4/5-x-5/--|
--9-x-9-9-9--9-x-9-9-9--7-x-7-7-7--4-x-4/5-x-5/--|
--7-x--------7-x--------5-x--------2-x-2/3-x-3/--|
-------------------------------------------------|

---------------------------------------------|
----x-8-8-8----x-8-8-8----x-7-7-7------------|
----x-9-9-9----x-9-9-9----x-7-7-7--55554444--|
--9-x-9-9-9--9-x-9-9-9--7-x-7-7-7--55554444--|
--7-x--------7-x--------5-x--------33332222--|
---------------------------------------------|


pre-chorus
--3------5------7--         --3----------------|
--5------7------8--         --5----------------|
--5------7------9--         --5------77777777--|
--5------7------9-- x3 then --5------77777777--|
--3------5------7--         --3------55555555--|
-------------------         -------------------|

chorus
--------------------------------------------------------------------------|
--------------------------------------------------------------------------|
-------------------------------------------------------55555555-----------|
--2222222222222222-55555555-77777777-22222222-55555555-55555555-77777777--|
--2222222222222222-55555555-77777777-22222222-55555555-33333333-77777777--|
--0000000000000000-33333333-55555555-00000000-33333333----------55555555--|

main riff
-----------------------------------------------------|
----8-8----------7---------------5-5---5-------------|
---------------------------------5-5---5---44444444--|
---------------------5/7-5-4p0-------------44444444--|
--7-----9-10-9/5---5-----------3-----3---3/22222222--|
-----------------------------------------------------|

verse
-------------------------------------------------|
----x-8-8-8----x-8-8-8----x-7-7-7----x-----x-----|
----x-9-9-9----x-9-9-9----x-7-7-7--4-x-4/5-x-5/--|
--9-x-9-9-9--9-x-9-9-9--7-x-7-7-7--4-x-4/5-x-5/--|
--7-x--------7-x--------5-x--------2-x-2/3-x-3/--|
-------------------------------------------------|

---------------------------------------------|
----x-8-8-8----x-8-8-8----x-7-7-7------------|
----x-9-9-9----x-9-9-9----x-7-7-7--55554444--|
--9-x-9-9-9--9-x-9-9-9--7-x-7-7-7--55554444--|
--7-x--------7-x--------5-x--------33332222--|
---------------------------------------------|

pre-chorus
--3------5------7--         --3----------------|
--5------7------8--         --5----------------|
--5------7------9--         --5------77777777--|
--5------7------9-- x1 then --5------77777777--|
--3------5------7--         --3------55555555--|
-------------------         -------------------|

chorus
--------------------------------------------------------------------------|
--------------------------------------------------------------------------|
-------------------------------------------------------55555555-----------|
--2222222222222222-55555555-77777777-22222222-55555555-55555555-77777777--| x2
--2222222222222222-55555555-77777777-22222222-55555555-33333333-77777777--|
--0000000000000000-33333333-55555555-00000000-33333333----------55555555--|

bridge
--7-7-----55555555---7-7-----------------------|
--8-8-----77777777---8-8-----------------------|
--9-9-x8--77777777---9-9-x8--5555555544444444--|
--9-9-----77777777---9-9-----5555555544444444--|
--7-7-----55555555---7-7-----3333333322222222--|
-----------------------------------------------|

pre-chorus
(acoustic) strum
--3------5------7--         --3----------------|
--5------7------8--         --5----------------|
--5------7------9--         --5------77777777--|
--5------7------9-- x3 then --5------77777777--|
--3------5------7--         --3------55555555--|
-------------------         -------------------|

chorus
--------------------------------------------------------------------------|
--------------------------------------------------------------------------|
-------------------------------------------------------55555555-----------|
--2222222222222222-55555555-77777777-22222222-55555555-55555555-77777777--| x2
--2222222222222222-55555555-77777777-22222222-55555555-33333333-77777777--|
--0000000000000000-33333333-55555555-00000000-33333333----------55555555--|

---------------------------------------------------------|
----8-8----------7---------------5-5---5-----4-----5-----|
---------------------------------5-5---5-----4-----5-----|
---------------------5/7-5-4p0---------------------------|
--7-----9-10-9/5---5-----------3-----3---3/2---2/3---3/--|
---------------------------------------------------------|

-------------------------------------------2-3-5-7--|
----8-8----------7---------------5-5---5---4-5-7-8--|
-------------------------------------------4-5-7-9--|
---------------------5/7-5-4p0-------------4-5-7-9--|
--7-----9-10-9/5---5-----------3-----3---3-2-3-5-7--|
----------------------------------------------------|
Suggest correction
What's this?
You can suggest a correction to this tab. Community and Mods will review your correction and vote to approve or reject it.
comments
We did not receive enough feedback on this tab! Please rate:
print report bad tab
1 2 3 4 5
guest
You may want to rate the tab now too:
select rating
Please do not post tabs as comments. Select "correction" instead!