Oops, an error
Loading. Please wait.

This Wont Stop Bass Tab

530 views 1 this week
no commentswrite comment
1 2 3 4 5
1 last vote to show rating
add to favorites
launch autoscroll
font size
0
reset
guitar tuner
Autoscroll
slow
fast
+/-
esc
set tempo
stop
Help us to improve Ultimate-Guitar.com Take our survey!
×
-------------------------------------------------------------------------------
			     This Wont Stop - My American Heart
-------------------------------------------------------------------------------

Tabbed By:heyitsthemokid

Tuning:Drop D

my friend helped me tab this. since he plays bass and i dont.

Intro
G|----------------------------------------------------------------------|
D|----------------------------------------------------------------------|
A|-----------------5-5-5-5555-5--------------------55555555--------5555-|
D|-77----77----77-----------------77----77----77-------------3333-------|

Verse
G|-------------------------------------------------------------|
D|-------------------------------------------------------------|
A|-------------------------------------------------------------|
D|-77777777-77777777-00000000-00000000-3/----5/----3/----55-55-|

G|-------------------------------------------------------------|
D|-------------------------------------------------------------|
A|-------------------------------------------------------------|
D|-77777777-77777777-00000000-00000000-3/----5/----3/----66666-|

Breakdown x2
G|-------------------------------------------------------------------|
D|-------------------------------------------------------------------|
A|-------------------------------------------------------------------|
D|-777----777----7/----x-77---x-5/----333----333---3/---x-33---x-5/--|

Pre-Chorus
G|--------------------------------------------------------|
D|----------9~--------3~----------------------------------|
A|------7----------3--------------------------------------|
D|-7-----------3------------333-333-3-3-333-333-333-3-3/5-|

G|---------------------------------------------------------------|
D|----------9~--------3~-----------------------------------------|
A|------7----------3---------------------------------------------|
D|-7-----------3------------333-333-3-3-333-333-333-3/5555555/7~-|

G|--------------------------------------------------------------------------------|
D|--------------------------------------------------------------------------------|
A|----------------------------5555------5555------------------------------5*-5*---|
D|-0-0-0-0-0-0-0-0-break-0000------0000-------77-77-77-77/3~-33-33-33-33----------|

G|-----------------------------------------------------------------|
D|-----------------------------------------------------------------|
A|------5555-------------------------------------------------------|
D|-0000------0000-small break--77-77-77-77/3~-33-33-33-33-0~-break-|

Chorus
G|--------------------------------------------------------------------|
D|--------------------------------------------------------------------|
A|--------------------------------------------------------------------|
D|-7-77-777-7-77-777-3-33-333-2-22-0-00-7-77-777-7-77-777-3*----5*----|

G|--------------------------------------|
D|--------------------------------------|
A|--------------------------------------|
D|-7-77-777-7-77-777-3-33-333-2-22-0-00-|

G|---------------------------------------------|
D|---------------------------------------------|
A|---------------------------------------------|
D|-7-77-777-7-77-777---3-33-333-2-222-5-555-5~-|

Breakdown
G|----------------------------------------------------|
D|----------------------------------------------------|
A|----------------------------------------------------|
D|-777-777-7-xxxxxxx-777-777-00000000-777-777-7-pause-|

G|------------------|
D|------------------|
A|------------------|
D|-777-777-00000000-|

Interlude
G|-------------------------------------------------|
D|-------------------------------------------------|
A|-------------------------------------------------|
D|-7777-7~------3333-3~-----7777-7~-----3333-3~----|

*Bass Solo* (In Interlude)
G|----------------------------------------------------------------------------|
D|-----10p0------------10p0------------10~-----10p0---------------------------|
A|-----------8p0--7p0--------8p0-5h7-----------------8p0-7p0-5p0-7p0-2h3p2-0~-|
D|-/77-------------------------------------/77--------------------------------|

G|-------------------------------------------|
D|-------------------------------------------|
A|-------------------------------------------|
D|-333~---333~---(bass solo)---333~---333~---|

Outro x2
G|-----------------------------|
D|-----------------------------|
A|-----------------------------|
D|-7(x16)-0(x16)-3(x16)-5(x16)-|
Suggest correction
Give kudos to tab author, rate the tab!
1 2 3 4 5
comments
print report bad tab
guest
You may want to rate the tab now too:
select rating
Wanna post a correction for this tab? Suggest correction