Oops, an error
Loading. Please wait.

This Wont Stop Tab

version 2
version 2

Whole song

705 views 1 this week
1 commentread comment
1 2 3 4 5
please rate
add to favorites
launch autoscroll
font size
0
reset
how to read this tab
guitar tuner
Autoscroll
slow
fast
+/-
esc
set tempo
stop
Help us to improve Ultimate-Guitar.com Take our survey!
×
Author
-------------------------------------------------------------------------------
                             This Won't Stop - My American Heart
-------------------------------------------------------------------------------
Tabbed by:heyitsthemokid

Tuning: Drop D

finally finished tabbing guitar one.

guitar two will be updated every couple days.

listen to song for strumming. 


GUITAR ONE

INTRO:

e|---------------------------------------------------------------|
B|---------------------------------------------------------------|
G|---------------------------------------------------9-----------|
D|-77--10p0----------77--10p0-9p0------77--10p0------7---000000--|
A|-77-------8p0-7p0--77-----------8p0--77-------8p0--8---000000--|
D|-77----------------77----------------77----------------000000--|
                                                         ......
e|-------------------------------------------------------------------|
B|-------------------------------------------------------------------|
G|-------------------------------------------------------------------|
D|-77--10p0-----------77--10p0-9p0---------77--10p0----------0-------|
A|-77-------8p0-7p0---77-----------8p0-----77-------8p0-7p0--0(x??)--|
D|-77-----------------77-------------------77----------------0-------|
                                                             .
VERSE:

e|-----------------------------------------------------------|
B|-----------------------------------------------------------|
G|----------------------------55555---77777---5/~~-----------|
D|-7-777777777/0-000000000--3-xxxxx-5-xxxxx-3-x/~~--55-55-5--|
A|-7-777777777/0-000000000--3-33333-5-55555-3-3/~~--55-55-5--|
D|-7-777777777/0-000000000--3-------5-------3-------55-55-5--|

e|-----------------------------------------------------------------|
B|-----------------------------------------------------------------|
G|----------------------------55555---7-7/5~----55555--------------|
D|-7-777777777/0-000000000--3-xxxxx-5-x-x/x~--3-xxxxx---555555-5~--|
A|-7-777777777/0-000000000--3-33333-5-5-5/3~--3-33333---555555-5~--|
D|-7-777777777/0-000000000--3-------5---------3---------555555-5~--|
                                                        ......
BREAKDOWN 1: x2 [ strumming not shown ]

e|-----------------------------------------|
B|-----------------------------------------|
G|---9-x-9-x-9/-x-7-x----4-x-5-x-4-5/-x-7--|
D|-7-7-x-7-x-7/-x-5-x-5--3-x-3-x-3-3/-x-5--|
A|-7-7-x-7-x-7/-x-5-x-5--3-x-3-x-3-3/-x-5--|
D|-7-7-x-7-x-7/-x-5-x-5--3-x-3-x-3-3/-x-5--|

PRE-CHORUS:

e|--------------------------------------------------------|
B|--------------------------------------------------------|
G|--------------------9b~---------------------------------|
D|-------9b~---------------333-333-3-3-333-333-333-3-3/5--|
A|----7------------0-------333-333-3-3-333-333-333-3-3/5--|
D|-7------------0----------333-333-3-3-333-333-333-3-3/5--|


e|-------------------------------------------------------------|
B|-------------------------------------------------------------|
G|--------------------9b~--------------------------------------|
D|-------9b~---------------333-333-3-3-333-333-333-3-33335555--|
A|----7------------0-------333-333-3-3-333-333-333-3-33335555--|
D|-7------------0----------333-333-3-3-333-333-333-3-33335555--|
                                                     ........
lazy to find out exactly how many times they do this.
i believe its 16 times. meaning this 16 times. 977

e|--------------------------------------------------|
B|--------------------------------------------------|
G|-9-----9-----9-----9-----9-----9-----9-----9------|
D|---7-----7-----7-----7-----7-----7-----7-----7----| 
A|-----7-----7-----7-----7-----7-----7-----7-----7--|
D|--------------------------------------------------|
   . . . . . . . . . . . . . . . . . . . . . . . .

e|-------------------------------|
B|-------------------------------|
G|-------9-9-9-9/14-14-14-14-14--|
D|-00000-7-7-7-7/x--x--x--x--x---| x2
A|-00000-8-8-8-8/12-12-12-12-12--|
D|-00000-------------------------|
   .....

e|-----------------------------------|
B|-----------------------------------|
G|-----------------------------------|
D|-77-77-99-99/3~-55-55-55-55--0--0--|
A|-77-77-77-77/3~-33-33-33-33--0--0--|
D|-77-77-77-77/3~-33-33-33-33--0--0--|
                               ^  ^ mute after note.

e|-------------------------------|
B|-------------------------------|
G|-------9-9-9-9/14-14-14-14-14--|
D|-00000-7-7-7-7/x--x--x--x--x---|
A|-00000-8-8-8-8/12-12-12-12-12--|
D|-00000-------------------------|
   .....

e|--------------------|
B|--------------------|
G|-------9-9-9-9/5~~--|
D|-00000-7-7-7-7/x~~--| 
A|-00000-8-8-8-8/3~~--|
D|-00000--------------|
   .....

e|-------------------------------------|
B|-------------------------------------|
G|-------------------------------------|
D|-77-77-99-99/3~-55-55-55-55--0~~~~~--|
A|-77-77-77-77/3~-33-33-33-33--0~~~~~--|
D|-77-77-77-77/3~-33-33-33-33--0~~~~~--|
                               . let ring until drumroll is done.

CHORUS:

e|-----------------------------------------------------------------------------|
B|-----------------------------------------------------------------------------|
G|-----------------------------------------------------------------------------|
D|-7-77-777-7-77-777-3-33-333-2-22-0-00-7-77-777-7-77-777-3--------5--2p0------|
A|-7-77-777-7-77-777-3-33-333-2-22-0-00-7-77-777-7-77-777-3--3-2p0-5------3p0--|
D|-7-77-777-7-77-777-3-33-333-2-22-0-00-7-77-777-7-77-777-3--------5-----------|

e|---------------------------------------|
B|---------------------------------------|
G|---------------------------------------|
D|-7-77-777-7-77-777-3-33-333-2-22-0-00--|
A|-7-77-777-7-77-777-3-33-333-2-22-0-00--|
D|-7-77-777-7-77-777-3-33-333-2-22-0-00--|


e|------------------------------------------------------|
B|------------------------------------------------------|
G|------------------------------------------------------|
D|-7-77-777-7-77-777-xxxxx--3-33-333-2-22222-3-33-xxxx--|
A|-7-77-777-7-77-777-xxxxx--3-33-333-2-22222-3-33-xxxx--|
D|-7-77-777-7-77-777-xxxxx--3-33-333-2-22222-3-33-xxxx--|

BREAKDOWN 2:

once you bend it just keep it bent and strum. [ kinda hard to explain
listen to song if you need to. ]

e|---------------------------------------------------|
B|---------------------------------------------------|
G|-888-888-8-888b8b8b8b8b-888-888--------888-888-8/--|
D|-777-777-7-777-x-x-x-x--777-777-000000-777-777-7/--|
A|-777-777-7-777-x-x-x-x--777-777-000000-777-777-7/--|
D|-777-777-7-777-x-x-x-x--777-777-000000-777-777-7/--|
                                  ......           ^bass drum

e|-----------------|
B|-----------------|
G|-888-888---------|
D|-777-777-000000--|
A|-777-777-000000--|
D|-777-777-000000--|
           ......

INTERLUDE :

Find out the timing.

e|-------------------------|
B|-------------------------|
G|-------------------------|
D|-7777-9~--/3~---9~--/3~--|
A|-7777-7~--/3~---7~--/3~--|
D|-7777-7~--/3~---7~--/3~--|
   ....          

SOLO:

e|----------------------------------------------------------------------|
B|-----------------------------------------------------------------12b--|
G|-12h14p12h14----12h14p12h14-----12h14p12h14----12h14p12----12h14------|
D|-------------14-------------14~-------------14----------14------------|
A|----------------------------------------------------------------------|
D|----------------------------------------------------------------------|


e|---------------------------------------|
B|---------------------------------------|
G|-12h14p12h14----12h14p12h14------/12v--|
D|-------------14-------------14~--------|
A|---------------------------------------|
D|---------------------------------------|

e|----------------------------------------------------------------------|
B|-----------------------------------------------------------------12b--|
G|-12h14p12h14----12h14p12h14-----12h14p12h14----12h14p12----12h14------|
D|-------------14-------------14~-------------14----------14------------|
A|----------------------------------------------------------------------|
D|----------------------------------------------------------------------|

e|----------------------------------------------------|
B|----------------------------------------------------|
G|-12h14p12h14----12h14p12h14------12121212-14141414--|
D|-------------14-------------14~--14141414-14141414--|
A|----------------------------------------------------|
D|----------------------------------------------------|

OUTRO:

e|-------------------------------------|
B|-------------------------------------|
G|-------------------------------------|
D|-7--------0--------3--------5--------|
A|-7-(x16?)-0-(x16?)-3-(x16?)-5-(x16)--|
D|-7--------0--------3--------5--------|
   .        .        .        .
e|----------------------------------------------|
B|----------------------------------------------|
G|----------------------------------------------|
D|-7--------0--------3--------5-------6---------|
A|-7-(x16?)-0-(x16?)-3-(x16?)-5-(x8?)-6-(x8?)---|
D|-7--------0--------3--------5-------6---------|
   .        .        .        .       .


| /  slide up
| \  slide down
| h  hammer-on
| p  pull-off
| ~  let ring
| v  vibrato
| +  harmonic
| x  mute note
| .  palm mute
===============================================================================
Suggest correction
What's this?
You can suggest a correction to this tab. Community and Mods will review your correction and vote to approve or reject it.
comments
We did not receive enough feedback on this tab! Please rate:
print report bad tab
1 2 3 4 5
1 comment total.
0 reply
arizonagreentea 152 wrote on January 13 2008, 10:22 pm

thats acutally the bass that you tabbed in the chorus section, but other than that pretty good

guest
You may want to rate the tab now too:
select rating
Please do not post tabs as comments. Select "correction" instead!