Oops, an error
Loading. Please wait.

Tired And Uninspired Tab

version 1
version 1

Acoustic

Whole song

33,522 views 12 this week
4 commentsread comments
1 2 3 4 5
accurate
x 8
add to favorites
launch autoscroll
font size
0
reset
how to read this tab
guitar tuner
Autoscroll
slow
fast
+/-
esc
set tempo
stop
Help us to improve Ultimate-Guitar.com Take our survey!
×
Author
Difficulty
Tuning
novice
D A D G B E
================================================================================

song:tired and uninspired
artist:myamericanheart
tuning:drop D


everyone likes this song
so i tabbed it...

btw, i got this tab from watching jesse
play it on youtube.its the one from
when they played their acoustic show
at jesse's mom's coffee shop. OCEAN JAVA.
note:you gotta figure out the strumming yourself.
     just listen to the song.its best if you watch the video.

intro/verse 1
e:-------------------------|
B:-------------------------|
G:-10---2---5---4----------|
D:-------------------------|
A:-12---3---7---5----------|for intro play twice.
E:-12---3---7---5----------|for verse play 8x.


prechorus 1
e:-------------------------|
B:-------------------------|
G:-9---1---2---------------|
D:-------------------------|
A:-10--2---3---------------|play twice
E:-10--2---3---------------|


chorus 1
e:-------------------------|
B:-------------------------|
G:-5---1---2---------------|
D:-------------------------|
A:-7---2---3---------------|play twice
E:-7---2---3---------------| 


play this after chorus
e:-------------------------|
B:-------------------------|
G:-10---2---5---4----------|
D:-------------------------|
A:-12---3---7---5----------|play twice
E:-12---3---7---5----------|


verse 2
e:-------------------------|
B:-------------------------|
G:-10---5---4--------------|
D:-------------------------|
A:-12---7---5--------------|play 4 times
E:-12---7---5--------------|



prechorus 2
e:--------------------------|
B:--------------------------|
G:-9---1---2---4------------|
D:--------------------------|
A:-10--2---3---5------------|play twice
E:-10--2---3---5------------|


chorus 2
e:-----------------------------|
B:-----------------------------|
G:-5---1---2---4---5---4---2---|
D:-----------------------------|
A:-7---2---3---5---7---5---3---|play once
E:-7---2---3---5---7---5---3---|

bridge
e:-----------------------------|--------------------|
B:-----------------------------|--------------------|
G:-10---9---4------------------|-7----9----10-------|
D:-----------------------------|--------------------|
A:-12---10--5------------------|-8----8----8--------|play this section twice
E:-12---10--5------------------|-8----8----8--------|
play this section 3 times.      you..oo...ooo..oh..you..oo...ooo


prechorus 3
e:------------------------|
B:------------------------|
G:-9----4----2------------|
D:------------------------|
A:-10---5----3------------|play twice
E:-10---5----3------------|


chorus 3
e:---------------------------------|
B:---------------------------------|
G:-5---4---2---4---5---1---2---4---|
D:---------------------------------|
A:-7---5---3---5---7---2---3---5---|play once
E:-7---5---3---5---7---2---3---5---| 

prechorus 4
e:--------------------|
B:--------------------|
G:-9----1---2---4-----|
D:--------------------|
A:-10---2---3---5-----|play twice
E:-10---2---3---5-----|

chorus 4
e:-----------------------------|
B:-----------------------------|
G:-5---1---2---4---5---4---2---|
D:-----------------------------|
A:-7---2---3---5---7---5---3---|play once
E:-7---2---3---5---7---5---3---|


outro
e:---------------------------------------------|-----------------------|
B:---5-----------------------------------------|-----------------------|
G:--------5-----------1-----2----2----2----2---|-5---4---2-------------|
D:-------------5-------------------------------|-----------------------|
A:---------------------------------------------|-7---5---3-------------|
E:-5---5---5------2-----3----3----3----3-------|-7---5---3-------------|
  play this section 2 or 3? times...            strum softly. play once

END!!

www.myspace.com/carloclap
comments questions?

k thanks!



Suggest correction
What's this?
You can suggest a correction to this tab. Community and Mods will review your correction and vote to approve or reject it.
comments
print report bad tab
4 comments total. Showing first comments.
0 reply
heyitsthemokid 589 wrote on December 21 2007, 04:15 pm

its good. but i think the outro is off.
but its still good. :]
i learned this song in 5 minutes.

0 reply
marktuazon 929 wrote on March 20 2008, 09:16 pm

i think it should be drop Db.

0 reply
marktuazon 929 wrote on March 20 2008, 09:28 pm

woops..Db is for original..sorry bout that :D

guest
You may want to rate the tab now too:
select rating
Please do not post tabs as comments. Select "correction" instead!