Oops, an error
Loading. Please wait.

Tired And Uninspired Tab

version 2
version 2

Acoustic

Whole song

5,830 views 1 this week
no commentswrite comment
1 2 3 4 5
please rate
add to favorites
launch autoscroll
font size
0
reset
how to read this tab
guitar tuner
Autoscroll
slow
fast
+/-
esc
set tempo
stop
Help us to improve Ultimate-Guitar.com Take our survey!
×
Difficulty
novice
Tired and Uninspired
by Gabriel Reyes

questions?comments?concerns?complaints?

http://www.myspace.com/wichawishawicha
http://www.youtube.com/user/RADCATZ


soooo...this is MY way of playing it..and i think it sounds okeh
aiight ladies...here it goes:


verse:
e:-1------------------------|
B:-3-----1------------------|
G:-2--2--2--4---------------|
D:----3--2--3---------------|
A:----3-----3---------------| repeat until chorus
E:--------------------------|

chorus:
e:----------------0----------0-----|
B:----------------1----------1-----|
G:----------------0--------------2-|
D:----------------2----------2---3-|
A:----------------3----------2---3-| X2
E:---------------------------------|
  you are the earth..beneath my feet.

e:-----------------------|
B:-----------------------|
G:------2--------4-------|
D:------3--------5-------|
A:------3--------5-------|
E:-----------------------|
  cuz lately i've been

e:-----------------------|
B:-1--------1------------|
G:-2------------2--------|
D:-2--------2---3--------|
A:----------2---3--------|
E:-----------------------|
  tired and uninspired...

repeat verse and chorus then:


e:--1-----------------|
B:--3--1--------------|
G:--2--2--4-----------|
D:-----2--5-----------|
A:--------5-----------| X2
E:--------------------|
the "be strong for me" part

e:----------------------|
B:------------3--5--6---|
G:------------5--5--5---|
D:------------5---------|
A:---------------5--5---| X2 sounds kinda off
E:----------------------|
be strong for youuuuuuu

e:----------0--------------------0---------------0----------------|
B:----1------------------1-----1---1--------1---------------------|
G:--------------0----2--------------------------------0-------2/|-|
D:------------------------------------------------------------3/|-|
A:-3-----3-----3---3---3-----------------3-----3----3---3-----3/|-|
E:----------------------------------------------------------------|
  earth...beneath my feet.......................gravity..cuz lately

e:-----------------------|
B:-1--------1------------|
G:-2------------2--------|
D:-2--------2---3--------|
A:----------2---3--------| then repeat chorus a few times
E:-----------------------|
  tired and uninspired...

ending:
e:----0----------------------0------0-----------0--------------|
B:----------1------------1--------1---1-------------1----------|
G:---------------0---2---------------------------------0---2---|
D:---------------------------------------------------------3---|
A:-3-----3-----3---3---3---3------------------3---3---3--3-3---|
E:-------------------------------------------------------------|

e:-------0---------------0-----0------------0----------------|
B:---1---------------1-------1---1--------------1------------|
G:-----------0---2----------------------------------0----2---|
D:-------------------------------------------------------3---|
A:-0---0---0---3---3---3------------------3---3---3---3--3---|
E:-----------------------------------------------------------|
 cause lately ive been..................lately ive been...

well, there you go
Suggest correction
What's this?
You can suggest a correction to this tab. Community and Mods will review your correction and vote to approve or reject it.
comments
We did not receive enough feedback on this tab! Please rate:
print report bad tab
1 2 3 4 5
guest
You may want to rate the tab now too:
select rating
Please do not post tabs as comments. Select "correction" instead!