Oops, an error
Loading. Please wait.

Tired And Uninspired Tab

version 3
version 3

Acoustic

Whole song

537 views 1 this week
no commentswrite comment
1 2 3 4 5
2 more votes to show rating
add to favorites
launch autoscroll
font size
0
reset
how to read this tab
guitar tuner
Autoscroll
slow
fast
+/-
esc
set tempo
stop
Help us to improve Ultimate-Guitar.com Take our survey!
×
----------------------------------------------------------------
          My American Heart - Tired and Uninspired (Acoustic)
----------------------------------------------------------------

All the tabs on here seemed a bit off.  This is the way I play it.
It sounds nice and full.  

It's not exactly the same as the full band version, but you'll get it.

WATCH THE WEIRD TUNING THOUGH!

Tabbed by Joshua Lawrence
Email - JLawrence124@gmail.com


Tuning
E A B F# B Eb  - Strange, I know, but it sounds awesome

Time Signature is 4/4

Key
/ = Slide Up
\ = Slide Down
x = Mute/Palm Mute
* = Thumb Tap
^ = Upstrum
h - Hammer on



For Verses
*Try to upstrum a bit between chords*
**You can play the top two strings but focus more on the bottom 4**

Verse 1 - "Home was always quiet…" 
Eb|-0--0--0--0--0----0-0---0-0-0-0-0---0-0-0-0-----||X8
 B|-0--0--0--0--0----0-0---0-0-0-0-0---0-0-0-0-----||
F#|-10-10-10-10-10---2-2---5-5-5-5-5---4-4-4-4-----||
 B|-x--x--x--x--x----x-x---x-x-x-x-x---x-x-x-x-----||
 A|-11-11-11-11-11---2-2---6-6-6-6-6---4-4-4-4-----||
 E|-9--9--9--9--9----0-0---4-4-4-4-4---2-2-2-2-----||

Chorus 1
   "You are the earth..."
Eb|--0----------------------0------------------||
 B|-----0----------------------0---------------||
F#|--------0-h2-0---0-------------0------------||
 B|---------------0---4-0-----------h2-0---0-2-||
 A|-2--2--2---------------2--2-----------0-----||
 E|-----------0----------------------0---------||

 "'…I've been tired and uninspired…"
Eb|----0---0---0-----0---0---0-----------------||
 B|----0---0---0-----0---0---0-----------------||
F#|----5---4---2-----5---4---2-----------------||
 B|----x---x---x-----x---x---x-----------------||
 A|----6---4---2-----6---4---2-----------------||
 E|----4---2---0-----4---2---0-----------------||

Post-Chorus
Eb|---0--0--0--0--0---0-0-0-0-0--0-0-0-0-0-0----||X2
 B|---0--0--0--0--0---0-0-0-0-0--0-0-0-0-0-0----||
F#|---10-10-10-10-10--2-2-5-5-5-5-5--4-4-4-4----||
 B|---x--x--x--x--x---x-x-x-x-x-x-x--x-x-x-x----||
 A|---11-11-11-11-11--2-2-6-6-6-6-6--4-4-4-4----||
 E|---9--9--9--9--9---0-0-4-4-4-4-4--2-2-2-2----||


Verse 2 - "… and then that flame…"
Eb|---0--0--0--0--0----0-0---0-0-0-0-0---0-0-0-0---||X4
 B|---0--0--0--0--0----0-0---0-0-0-0-0---0-0-0-0---||
F#|---10-10-10-10-10---2-2---5-5-5-5-5---4-4-4-4---||
 B|---x--x--x--x--x----x-x---x-x-x-x-x---x-x-x-x---||
 A|---11-11-11-11-11---2-2---6-6-6-6-6---4-4-4-4---||
 E|---9--9--9--9--9----0-0---4-4-4-4-4---2-2-2-2---||

Chorus 2 - "You are the earth..."
Eb|----0-0-0-0-0-0-0-0--0-0-0-0-0-0-0---------||
 B|----0-0-0-0-0-0-0-0--0-0-0-0-0-0-0---------||
F#|----9-9-9-9-9-4-4-2--2-2-2-2-2-2-2---------||
 B|----x-x-x-x-x-x-x-x--x-x-x-x-x-x-x---------||
 A|----9-9-9-9-9-4-4-2--2-2-2-2-2-2-2---------||
 E|----7-7-7-7-7-2-2-0--0-0-0-0-0-0-0---------||

Eb|----0-0-0-0-0-0-0-0--0-0-0-0-0-0-0---------||
 B|----0-0-0-0-0-0-0-0--0-0-0-0-0-0-0---------||
F#|----9-9-9-9-9-4-4-2--2-2-2-2-2-4-4---------||
 B|----x-x-x-x-x-x-x-x--x-x-x-x-x-x-x---------||
 A|----9-9-9-9-9-4-4-2--2-2-2-2-2-4-4---------||
 E|----7-7-7-7-7-2-2-0--0-0-0-0-0-2-2---------||
 
  "'Cause lately I've been tired and uninspired"
Eb|----0-0-0-0--x--0--x--0--0-0-0-0-0-0-0-----||
 B|----0-0-0-0--x--0--x--0--0-0-0-0-0-0-0-----||
F#|----5-5-5-5--x--4--x--2--2-2-2-2-2-4-4-----||
 B|----x-x-x-x--x--x--x--x--x-x-x-x-x-x-x-----||
 A|----6-6-6-6--x--4--x--2--2-2-2-2-2-4-4-----||
 E|----4-4-4-4--x--2--x--0--0-0-0-0-0-2-2-----||

   "'Cause lately I've been tired, OH so tired"
Eb|----0-0-0-0--x--0--x--0--0-0-0-0-0-0-0-----||
 B|----0-0-0-0--x--0--x--0--0-0-0-0-0-0-0-----||
F#|----5-5-5-5--x--4--x--2--2-2-2-2-2-2-2-----||
 B|----x-x-x-x--x--x--x--x--x-x-x-x-x-x-x-----||
 A|----6-6-6-6--x--4--x--2--2-2-2-2-2-2-2-----||
 E|----4-4-4-4--x--2--x--0--0-0-0-0-0-0-0-----||

Bridge
   "…Be strong for me"
Eb|--0--0--0--0--0---0-0---0---0-0-0-0-0-0-0--||X3
 B|--0--0--0--0--0---0-0---0---0-0-0-0-0-0-0--||
F#|--10-10-10-10-10--9-9---4---4-4-4-4-4-4-4--||
 B|--x--x--x--x--x---x-x---x---x-x-x-x-x-x-x--||
 A|--11-11-11-11-11--9-9---4---4-4-4-4-4-4-4--||
 E|--9--9--9--9--9---7-7---2---2-2-2-2-2-2-2--||

  "…and I'll be strong for you…"
Eb|-----0-0-0-0-0-0-0-0-----||X4
 B|-----0-0-0-0-0-0-0-0-----||
F#|-----7-7-7-7-7-7-7-7-----||
 B|-----x-x-x-x-x-x-x-x-----||
 A|-----7-7-7-7-7-7-7-7-----||
 E|-----5-5-5-5-5-5-5-5-----||

Chorus 3
   "You are the earth…"
Eb|---------------------||X2
 B|---------------------||
F#|---9---4---2---------||
 B|---x---x---x---------||
 A|---9---4---2---------||
 E|---7---2---0---------||

  "'Cause lately I've been tired and uninspired"
Eb|----0-0-0-0-0--0-0---0--0-0-0-0-0-0-0-----||X2
 B|----0-0-0-0-0--0-0---0--0-0-0-0-0-0-0-----||
F#|----5-5-5-5-5--4-4---2--2-2-2-2-2-4-4-----||
 B|----x-x-x-x-x--x-x---x--x-x-x-x-x-x-x-----||
 A|----6-6-6-6-6--4-4---2--2-2-2-2-2-4-4-----||
 E|----4-4-4-4-4--2-2---0--0-0-0-0-0-2-2-----||

  "You are the earth beneath my feet…"
Eb|----0-0-0-0-0-0-0-0--0-0-0-0-0-0-0---------||
 B|----0-0-0-0-0-0-0-0--0-0-0-0-0-0-0---------||
F#|----9-9-9-9-9-4-4-2--2-2-2-2-2-2-2---------||
 B|----x-x-x-x-x-x-x-x--x-x-x-x-x-x-x---------||
 A|----9-9-9-9-9-4-4-2--2-2-2-2-2-2-2---------||
 E|----7-7-7-7-7-2-2-0--0-0-0-0-0-0-0---------||

Eb|----0-0-0-0-0-0-0-0--0-0-0-0-0-0-0---------||
 B|----0-0-0-0-0-0-0-0--0-0-0-0-0-0-0---------||
F#|----9-9-9-9-9-4-4-2--2-2-2-2-2-4-4---------||
 B|----x-x-x-x-x-x-x-x--x-x-x-x-x-x-x---------||
 A|----9-9-9-9-9-4-4-2--2-2-2-2-2-4-4---------||
 E|----7-7-7-7-7-2-2-0--0-0-0-0-0-2-2---------||

  "'You are the earth beneath my feet..."
Eb|----0-0-0-0--x--0--x--0--0-0-0-0-0-0-0-----||
 B|----0-0-0-0--x--0--x--0--0-0-0-0-0-0-0-----||
F#|----5-5-5-5--x--4--x--2--2-2-2-2-2-4-4-----||
 B|----x-x-x-x--x--x--x--x--x-x-x-x-x-x-x-----||
 A|----6-6-6-6--x--4--x--2--2-2-2-2-2-4-4-----||
 E|----4-4-4-4--x--2--x--0--0-0-0-0-0-2-2-----||

             "'You are my gravity"
Eb|----0-0-0-0--x--0--x--0-------||
 B|----0-0-0-0--x--0--x--0-------||
F#|----5-5-5-5--x--4--x--2-------||
 B|----x-x-x-x--x--x--x--x-------||
 A|----6-6-6-6--x--4--x--2-------||
 E|----4-4-4-4--x--2--x--0-------||


Outro
Eb|--0-------------------------0------------------||
 B|-----0-------------------------0---------------||
F#|--------0-h2------h2--0-----------0---h2-------||
 B|-------------0---------------------------0-----||
 A|-2--2--2-------------------2--2--2-------------||
 E|-----------0---0---0--0----------------0---0---||

  "I've been tired and uninspired"
Eb|---------------------------------------||
 B|---------------------------------------||
F#|---4-----5---------4--2----------4-----||
 B|-----0------0------------0-----0----0--||
 A|---------------------------------------||
 E|---2-----4----4----2--0----0-----2-----||

   "I've been tired, oh so tired."
Eb|---------------||
 B|---------------||
F#|----5--4--2----||
 B|---------------||
 A|---------------||
 E|----4--2--0----||
Suggest correction
Give kudos to tab author, rate the tab!
1 2 3 4 5
comments
print report bad tab
guest
You may want to rate the tab now too:
select rating
Wanna post a correction for this tab? Suggest correction