Oops, an error
Loading. Please wait.

Tired And Uninspired Chords

version 2
version 2

Whole song

3,861 views 1 this week
no commentswrite comment
1 2 3 4 5
please rate
add to favorites
launch autoscroll
font size
0
reset
transpose
0
reset
display chords
guitar tuner
Autoscroll
slow
fast
+/-
esc
set tempo
stop
Help us to improve Ultimate-Guitar.com Take our survey!
×
Author
Difficulty
novice
This is my first tab but i'm pretty sure i got it sounding just perfect.
Please dont be put off my the amount of tab, it's all basically three different chord paterns.
I just did every section over again so you can scroll and know exactly what you're 
at what point with what words.
Strumming patterns vary so please listen to the song to pick it up, hopefully you should 
clear with it quickly.
pleas rate this tab.
cheers
luke

Verse 1:

E--4-----0----------------------------------------|
A--5-----0----------------------------------------|
G--6-----1-----4-----3----------------------------|
D--6-----2-----6-----4----------------------------|
A--4-----2-----6-----4----------------------------|
E--------0----------------------------------------|

Home, was always quiet till the sun went down,
But we were stowaways,
Yeah we were so afraid,
So we ran out of town,
From everyone who was calling us out,
Relax relax, exhail and breath,
Just breath for me.

maybe the full barre chord on the last two but i think they sound better like this. 
for the strumming pattern.


Chorus section 1 (0:43)

----------------0---------------------------------|
----------------0---------------------------------|
----88888---3---1---------------------------------|
----99999---4---2---------------------------------|
----99999---4---2---------------------------------|
----77777---2---0---------------------------------|

You are the earth beneath my feet. you are my gravity.


Chorus Section 2 (0:54)

----------------0---------------------------------|
----------------0---------------------------------|
----44444---3---1---------------------------------|
----66666---4---2---------------------------------|
----66666---4---2---------------------------------|
----44444---2---0---------------------------------|

Cause lately i've been tired and uninspired
Cause lately i've been tired, oh so tired.


Break (1:08)

E--44444-----0------------------------------------|
A--55555-----0------------------------------------|
G--66666-----1-----4-4444----3--------------------|   X2
D--66666-----2-----6-6666----4--------------------|
A--44444-----2-----6-6666----4--------------------|
E------------0------------------------------------|

Verse 2 (1:17)

E--4-----0----------------------------------------|
A--5-----0----------------------------------------|
G--6-----1-----4-----3----------------------------|
D--6-----2-----6-----4----------------------------|
A--4-----2-----6-----4----------------------------|
E--------0----------------------------------------|

But then the frame, it went away
You knew you had to leave and couldn't stay
Be strong for me i'll be strong for you
Be strong for me i'll be strong for you


Chorus section 1 (1:39)

----------------0---------------------------------|
----------------0---------------------------------|
----88888---3---1---------------------------------|
----99999---4---2---------------------------------|
----99999---4---2---------------------------------|
----77777---2---0---------------------------------|

You are the earth beneath my feet. you are my gravity.


Chorus Section 2 (1:50)

----------------0---------------------------------|
----------------0---------------------------------|
----44444---3---1---------------------------------|
----66666---4---2---------------------------------|
----66666---4---2---------------------------------|
----44444---2---0---------------------------------|

Cause lately i've been tired and uninspired
Cause lately i've been tired, oh so tired.


Breakdown (2:03)

--------------------------------------------------|
----55555-----------------------------------------|
----66666---8----3-333333-------------------------|   X3
----66666---9----4-444444-------------------------|
----44444---9----4-444444-------------------------|
------------7----2-222222-------------------------|

Be strong for me
Be strong for me

----------------0-000000--------------------------|
----5555---666--0-000000--------------------------|
----6666---888--1-111111--------------------------|   X2
----6666---888--2-222222--------------------------|
----4444---666--2-222222--------------------------|
----------------0-000000--------------------------|

And I'll be strong for you
you


Chorus section 1 (2:32)

----------------0---------------------------------|
----------------0---------------------------------|
----88888---3---1---------------------------------|
----99999---4---2---------------------------------|
----99999---4---2---------------------------------|
----77777---2---0---------------------------------|

You are the earth beneath my feet. you are my gravity.


Chorus Section 2 (2:41)

----------------0---------------------------------|
----------------0---------------------------------|
----44444---3---1---------------------------------|
----66666---4---2---------------------------------|
----66666---4---2---------------------------------|
----44444---2---0---------------------------------|

Cause lately i've been tired and uninspired
Cause lately i've been tired and uninspired


Chorus section 1 (2:52)

----------------0---------------------------------|
----------------0---------------------------------|
----88888---3---1---------------------------------|
----99999---4---2---------------------------------|
----99999---4---2---------------------------------|
----77777---2---0---------------------------------|

You are the earth beneath my feet. you are my gravity.


Chorus Section 2 (3:05)

----------------0---------------------------------|
----------------0---------------------------------|
----44444---3---1---------------------------------|
----66666---4---2---------------------------------|
----66666---4---2---------------------------------|
----44444---2---0---------------------------------|

You are the earth beneath my feet. you are my gravity.


Outro (3:16)

----------------0---------------------------------|
----------------0---------------------------------|
----88888---3---1---------------------------------|   X2
----99999---4---2---------------------------------|
----99999---4---2---------------------------------|
----77777---2---0---------------------------------|

----------------0---------------------------------|
----------------0---------------------------------|
----44444---3---1---------------------------------|
----66666---4---2---------------------------------|
----66666---4---2---------------------------------|
----44444---2---0---------------------------------|

Cause lately ive been tired and uninspired
Cause lately i've been tired oh so tired
Suggest correction
Give kudos to tab author, rate the tab!
1 2 3 4 5
comments
print report bad tab
guest
You may want to rate the tab now too:
select rating
Please do not post tabs as comments. Select "correction" instead!