Oops, an error
Loading. Please wait.

Tired And Uninspired Tab

version 3
version 3

Whole song

657 views 1 this week
no commentswrite comment
1 2 3 4 5
please rate
add to favorites
launch autoscroll
font size
0
reset
how to read this tab
guitar tuner
Autoscroll
slow
fast
+/-
esc
set tempo
stop
Help us to improve Ultimate-Guitar.com Take our survey!
×
Difficulty
novice
I watched a lot of videos of this song and put together this tab


GUITAR 1:

VERSE 1
"Home was always quiet..."

E--X---X---X---X--|
A--11--2---6---4--|
D--11--2---6---4--|  x8
G--9---1---4---3--|
B--X---X---X---X--|
E--X---X---X---X--|

CHORUS
"You are the earth..."

E--X---X---X-------|
A--9---4---2-------|
D--9---4---2-------|  X2
G--8---3---1-------|
B--X---X---X-------|
E--X---X---X-------|

"Cause lately I've been..."

E--X---X---X------------|
A--6---4---2------------|
D--6---4---2------------|   X2
G--4---3---1------------|
B--X---X---X------------|
E--X---X---X------------|


VERSE 2
"Oh they're not frame..."

E--X---X---X---X---------|
A--11--2---6---4---------|
D--11--2---6---4     X 6-|
G--9---1---4---3---------|
B--X---X---X---X---------|
E--X---X---X---X---------|

CHORUS
"You are the earth..."

E--X---X---X-------|
A--9---4---2-------|
D--9---4---2-------|  X2
G--8---3---1-------|
B--X---X---X-------|
E--X---X---X-------|

"Cause lately I've been..."

E--X---X---X---------|
A--6---4---2---------|
D--6---4---2---------|  X2
G--4---3---1---------|
B--X---X---X---------|
E--X---X---X---------|


"And be strong for me..."

E--X---X---X---------|
A--6---2---4---------|
D--6---2---4---------|  x2
G--4---1---3---------|
B--X---X---X---------|
A--X---X---X---------|

"And I'll be strong for you..."

E--X---X---X----|
A--7---9---9----|
D--7---9---9----|  X2
G--6---8---9----|
B--X---X---X----|
A--X---X---X----|

CHORUS x2
"You are the earth..."

E--X---X---X-------|
A--9---4---2-------|
D--9---4---2-------|  X2
G--8---3---1-------|
B--X---X---X-------|
E--X---X---X-------|

"Cause lately I've been..."

E--X---X---X------------|
A--6---4---2------------|
D--6---4---2------------|   X2
G--4---3---1------------|
B--X---X---X------------|
E--X---X---X------------|


ENDING
"Cause lately I've been tired and uninspired, cause lately I've been.."

E-7----- 7------7------7-------7------------7------7-----------|
A--------------------9---------------7---9---------------------|
D------------9--------------6--------------------6----------9--|  x3
G---8----------------------------------------------------------|
B--------------------------------------------------------------|
A--------------------------------------------------------------|

"Tired, oh so tired"

E--X----X----X----------|
A--6----4----2----------|
D--6----4----2----------|
G--4----3----1----------|
B--X----X----X----------|
A--X----X----X----------|


GUITAR 2:

First verse (0:24)

E---------------------|
A---------------------|
D---------------------|  x4
G---------------------|
B---------------------|
E--0--2--4--9--7------|

After first chorus (1:08)

E----------------------------------------|
A----------------------------------------|
D--9-9-9-9-9-8-8-9-9-9-9-9-8-------------|  x2
G----------------------------------------|
B----------------------------------------|
E----------------------------------------|
Suggest correction new What's this?
You can suggest a correction to this tab. Community and Mods will review your correction and vote to approve or reject it.
comments
We did not receive enough feedback on this tab! Please rate:
print report bad tab
1 2 3 4 5
guest
You may want to rate the tab now too:
select rating
Please do not post tabs as comments. Select "correction" instead!