Oops, an error
Loading. Please wait.

White Lines Tab

version 1
version 1

Intro

Whole song

Interactive

954 views 1 this week
no commentswrite comment
1 2 3 4 5
please rate
add to favorites
launch autoscroll
font size
0
reset
how to read this tab
guitar tuner
Autoscroll
slow
fast
+/-
esc
set tempo
stop
Help us to improve Ultimate-Guitar.com Take our survey!
×
Tuning
D A D G B E
http://www.myamericanheartrock.com
http://www.purevolume.com/myamericanheart

Band: My American Heart
Song: White Lines (Intro)
Album: Demo


Tabbed by: Secret_Azn (Kevin E.)- Email me at metroidx@cox.net


Tuning: Drop D (one step down from E)


Legend:
     ~ = hold
     -x- = scratch (mute note)
     \ / = slide
     . = palm mute
     h = hammer-on
     p = pull-off
     b = bend


  1st guitar (lead) left speaker

INTRO:
e|----------------------------------------------------------------|
b|----------------------------------------------------------------|
G|-9-9--7/9--7-5-7--5-4-5-5-5-5---9-9--12-12--9-9--7-7--7-7-7/----|
D|-x-x--x-x--x-x-x--x-x-x-x-x-x---x-x--x--x---x-x--x-x--x-x-x-----|
A|-7-7--5/7--5-3-5--3-2-3-3-3-3---7-7--10-10--7-7--5-5--5-5-5/----|
D|----------------------------------------------------------------|


e|----------------------------------------------------------------||
b|----------------------------------------------------------------||
G|-9-9--7/9--7-5-7--5-4-5-5-5-5---9-9--12-12--9-9--7-7-7--4-5-----||
D|-x-x--x-x--x-x-x--x-x-x-x-x-x---x-x--x--x---x-x--x-x-x--x-x-----||
A|-7-7--5/7--5-3-5--3-2-3-3-3-3---7-7--10-10--7-7--5-5-5--2-3-----||
D|----------------------------------------------------------------||

   
  
  2nd guitar (rythym) right speaker

INTRO:
e|----------------------------------------------------------------|
b|----------------------------------------------------------------|
G|----------------------------------------------------------------|
D|-\7-7-7-7--7-7-10--10-9h10--10-10---3-3--3-3---2-2--2-2--2-2----|
A|-\7-7-7-7--7-7-10--10-9h10--10-10---3-3--3-3---2-2--2-2--2-2----|
D|-\7-7-7-7--7-7-10--10-9h10--10-10---3-3--3-3---2-2--2-2--2-2----|


e|----------------------------------------------------------------||
b|----------------------------------------------------------------||
G|----------------------------------------------------------------||
D|-7-7-7-7--7-7-10--10-9h10--10-10----3-3--3-3---2-2--2-2--2-2-0-3||
A|-7-7-7-7--7-7-10--10-9h10--10-10----3-3--3-3---2-2--2-2--2-2-0-3||
D|-7-7-7-7--7-7-10--10-9h10--10-10----3-3--3-3---2-2--2-2--2-2-0-3||


   I'll tab the rest later
Suggest correction
Give kudos to tab author, rate the tab!
1 2 3 4 5
comments
print report bad tab
guest
You may want to rate the tab now too:
select rating
Wanna post a correction for this tab? Suggest correction