Oops, an error
Loading. Please wait.

Come In Alone Tab

version 2
version 2

Whole song

1,770 views 18 this week
1 commentread comment
1 2 3 4 5
1 last vote to show rating
add to favorites
launch autoscroll
font size
0
reset
how to read this tab
guitar tuner
Autoscroll
slow
fast
+/-
esc
set tempo
stop
Help us to improve Ultimate-Guitar.com Take our survey!
×
Author
My Bloody Valentine - Come In Alone

Tuning: F# C# F# Bb B F# 438hz

intro/chorus:
F#|--0--0---0----0--0--|
B |--0--0---0----0--0--|
Bb|--8--13--15---6--8--|
F#|--7--12--14---5--7--|
C#|--0--0---0----0--0--|
F#|--0--0---0----0--0--|

Verse: (Kevin Shields mutes the high F# with his thumb during the verse)
F#|--0--0--0--0--0--0--0-|
B |--0--0--0--0--0--0--0-|
Bd|--8--6--5--0--8--6--0-|
F#|--7--5--5--4--7--5--4-|
C#|--0--0--3--5--0--0--5-|
F#|--x--x--x--5--x--x--5-|


Tromolo parts:


Intro & @ 1:36 (I probably wouldn't of figured out the tuning if Kevin Shields 
hadn't played this live)
F#|---------------------------------------------|
B |---------------------------------------------|
Bb|---8--10---8--10--12---8--10--12--13\10p8-10-|
F#|-7-------7-----------7-----------------------|
C#|---------------------------------------------|
F#|---------------------------------------------|

@0:58
F#|------7---|
B |--9--7----|
Bb|----------|
F#|----------|
C#|----------|
F#|----------|

@2:33
F#|------7---|
B |--9--7----|
Bb|--------12|
F#|----------|
C#|----------|
F#|----------|


End: the intro/chorus added with this near the end @3:12
F#|-------------------------------|
B |-------------------------------|
Bb|---8--10--12--13--15--8--10--12|
F#|-7-----------------------------|
C#|-------------------------------|
F#|-------------------------------|
Suggest correction
Give kudos to tab author, rate the tab!
1 2 3 4 5
comments
print report bad tab
1 comment total.
0 reply
RoseofPain13 1,302 Jun 22, 2015 03:41 PM

From watching the live videos I'd say this is perfect!

guest
You may want to rate the tab now too:
select rating
Wanna post a correction for this tab? Suggest correction