Oops, an error
Loading. Please wait.

Drive It All Over Me bass

449 views 3 this week
no commentswrite comment
1 2 3 4 5
3 more votes to show rating
add to favorites
×
Save as Personal and add changes to this tab that will be seen only by you. Learn more ›
×
You can save this tab as Personal to edit and correct it or add notes. All changes will be seen only by you. Learn more »
launch autoscroll
font size
0
reset
guitar tuner
edit
Autoscroll
slow
fast
+/-
esc
set tempo
stop
Author
-------------------------------------------------------------------------------
                   DRIVE IT ALL OVER ME - My Bloody Valentine                  
-------------------------------------------------------------------------------
Tabbed by: SPLAM!
Bassist: Debbie Googe
Tuning: EADG

Intro
  1 + 2 + 3 + 4 +  1 + 2 + 3 + 4 + 
G|----------------|----------------|
D|----------------|----------------|
A|--------------3-|L-3---3-3---3---| x4
E|3---3---3---3---|----------------|


Verse
  1 + 2 + 3 + 4 +  1 + 2 + 3 + 4 + 
G|----------------|----------------|
D|----------------|----------------|
A|--------------3-|L-3---3-3---3---| x2
E|3---3---3---3---|----------------|

  1 + 2 + 3 + 4 +  1 + 2 + 3 + 4 +  1 + 2 + 3 + 4 +  1 + 2 + 3 + 4 + 
G|----------------|----------------|----------------|----------------|
D|----------------|----------------|----------------|----------------|
A|----------------|----------------|2---2---2---2-3-|L-3---3-3---3---|
E|3---3---3---3-2-|L-2---2-2---2---|----------------|----------------|

  1 + 2 + 3 + 4 +  1 + 2 + 3 + 4 + 
G|----------------|----------------|
D|----------------|----------------|
A|--------------3-|L-3---3-3---3---| x2
E|3---3---3---3---|----------------|

  1 + 2 + 3 + 4 +  1 + 2 + 3 + 4 +  1 + 2 + 3 + 4 +  1 + 2 + 3 + 4 + 
G|----------------|----------------|----------------|----------------|
D|----------------|----------------|----------------|----------------|
A|----------------|----------------|2---2---2---2-3-|L-3---3/5-----\-|
E|3---3---3---3-2-|L-2---2-2---2---|----------------|----------------|


Chorus
  1 + 2 + 3 + 4 +  1 + 2 + 3 + 4 +  1 + 2 + 3 + 4 +  1 + 2 + 3 + 4 + 
G|2-4---2-4.----2-|L-4---2-4-------|----------------|----------------|
D|----------------|----------------|4---4---4.------|----------------|
A|----------------|----------------|--------------2-|L-2---2-2-------|
E|----------------|----------------|----------------|----------------|

  1 + 2 + 3 + 4 +  1 + 2 + 3 + 4 +  1 + 2 + 3 + 4 +  1 + 2 + 3 + 4 + 
G|----------------|----------------|5-------5.----4-|L-4---0---2-0---|
D|----------------|----------------|----------------|----------------|
A|3---3---3.----3-|L-3---3-3---3---|----------------|----------------|
E|----------------|----------------|----------------|----------------|

On the repeat, the last bar has another bar after it. The two work like this:
  1 + 2 + 3 + 4 +  1 + 2 + 3 + 4 +
G|L-4---0---2-0--h|4-R-------------|
D|----------------|----------------|
A|----------------|----------------|
E|----------------|----------------|
The hammer-on in the second bar is played very quietly.

End on
E|3---------------|
Do a slight slide up the neck after letting the G ring

--------------------------
Those are all the sections. It sounds like there is are two bass tracks, 
one slightly driven and the other distorted, so to get Debbie's sound it's
best to split your bass signal into the two tracks described above.

| L  tie
| /  slide up
| \  slide down
| .  (beside note) dotted
| h  hammer-on 
| R  rest
===============================================================================

            
            
Suggest correction
Creating personal tab
Creating personal tab
You can edit any tab online and save it as your Personal.

You can edit, replace or remove any tab part or add personal notes – all changes will be seen only by you.

Personal tabs can be accessed anytime from any device, even offline.
Learn more »
Give kudos to tab author, rate the tab!
1 2 3 4 5
comments
print report bad tab
guest
You may want to rate the tab now too:
select rating
Wanna post a correction for this tab? Suggest correction