Oops, an error
Loading. Please wait.

Only Shallow Tab

version 1
version 1

Whole song

Interactive

17,824 views 33 this week
2 commentsread comments
1 2 3 4 5
x 3
add to favorites
launch autoscroll
font size
0
reset
how to read this tab
guitar tuner
Autoscroll
slow
fast
+/-
esc
set tempo
stop
Help us to improve Ultimate-Guitar.com Take our survey!
×
Author
Difficulty
novice
My Bloody Valentine - Only Shallow
-----------------------------------
Chorus:
e|-----------------------|
B|-----------------------|
G|-----------------------|
D|-3-3-5-5-8-8-8-8-10-10-|
A|-3-3-5-5-8-8-8-8-10-10-|
E|-1-1-3-3-6-6-6-6-8--8--|

Verse:
e|-----------------------------------------------------------------|
B|-3-3-3-3-3-3-3-3-------------------------------------------------|
G|-4-4-4-4-4-4-4-4-------------------------------------------------|
D|-0-0-0-0-0-0-0-0-3-3-3-3-3-3-3-3-5-5-5-5-5-5-5-5-3-3-3-3-3-3-3-3-|
A|-x-x-x-x-x-x-x-x-1-1-1-1-1-1-1-1-5-5-5-5-5-5-5-5-1-1-1-1-1-1-1-1-|
E|-3-3-3-3-3-3-3-3-1-1-1-1-1-1-1-1-3-3-3-3-3-3-3-3-1-1-1-1-1-1-1-1-|
<=Bend the tremolo arm arm down a bit on the last four strokes.
Suggest correction
Give kudos to tab author, rate the tab!
1 2 3 4 5
comments
print report bad tab
2 comments total.
0 reply
clivers 337 Jul 08, 2008 08:39 PM

the verse, i do believe, is slighty wrong. the 3xo43x seems right, but the F and G power chords i do believe are actually Bb and C.

so the verse might be more like this...
e|-----------------------------------------------------------------|
B|-3-3-3-3-3-3-3-3-------------------------------------------------|
G|-4-4-4-4-4-4-4-4-3-3-3-3-3-3-3-3-5-5-5-5-5-5-5-5-3-3-3-3-3-3-3-3-|
D|-0-0-0-0-0-0-0-0-3-3-3-3-3-3-3-3-5-5-5-5-5-5-5-5-3-3-3-3-3-3-3-3-|
A|-x-x-x-x-x-x-x-x-1-1-1-1-1-1-1-1-5-5-5-5-5-5-5-5-1-1-1-1-1-1-1-1-|
E|-3-3-3-3-3-3-3-3-------------------------------------------------|

my band covers this song and that's how our guitarist plays it and i think that sounds more acurate

0 reply
clivers 337 Jul 08, 2008 08:39 PM

the verse, i do believe, is slighty wrong. the 3xo43x seems right, but the F and G power chords i do believe are actually Bb and C.

so the verse might be more like this...
e|-----------------------------------------------------------------|
B|-3-3-3-3-3-3-3-3-------------------------------------------------|
G|-4-4-4-4-4-4-4-4-3-3-3-3-3-3-3-3-5-5-5-5-5-5-5-5-3-3-3-3-3-3-3-3-|
D|-0-0-0-0-0-0-0-0-3-3-3-3-3-3-3-3-5-5-5-5-5-5-5-5-3-3-3-3-3-3-3-3-|
A|-x-x-x-x-x-x-x-x-1-1-1-1-1-1-1-1-5-5-5-5-5-5-5-5-1-1-1-1-1-1-1-1-|
E|-3-3-3-3-3-3-3-3-------------------------------------------------|

my band covers this song and that's how our guitarist plays it and i think that sounds more acurate

guest
You may want to rate the tab now too:
select rating
Wanna post a correction for this tab? Suggest correction