Oops, an error
Loading. Please wait.

Only Tomorrow Tab

version 1
version 1

Whole song

7,782 views 30 this week
1 commentread comment
1 2 3 4 5
excellent!
x 6
add to favorites
launch autoscroll
font size
0
reset
how to read this tab
guitar tuner
Autoscroll
slow
fast
+/-
esc
set tempo
stop
Help us to improve Ultimate-Guitar.com Take our survey!
×
ONLY TOMORROW BY MY BLOODY VALENTINE
Form the album m b v – (written by Kevin Shields)

I have broken it down into three sections, section A, which is the vocal and the outro,
section B which is the first instrumental and the subsequent pre-outro, and the
interlude which is a short chord sequence used both to link the two sections and also 
inserted into the outro. Because of the constantly shifting time signature and expressive,
accentuated chords in the sequences, you will have to work out the exact timings from 
the shapes, however, it all makes sense after a few constant listens!

Section A:

E---3---  3---  1---  0----  0---  5---      5----   x----x-|
B---3---  3---  1---  0----  0---  5---      5----   3----3-|
G---4---  4---  2---  2----  1---  7---      6----   3----3-|
D---5---  5---  3---  2----  2---  5---      5----   3----3-|
A---5---  5---  3---  2----  2---  7---      7----   1----0-|
E---3---  0---  1---  0----- 0--- 5 ---      5---    x----x-|

   G     G/E   F   Esus4  E    A7sus4  A7   C      Am7


Interlude:


E----x------5----   5----|
B----8------5----   5----|
G----7------7----   6----|
D----8------5----   5----|
A----6------7-----  7----|
E----x------5------------|  5—

    Ebma7 A7sus4    A7


Section B:

E----1------0---------x------5------------5------3------3-----x------1-----3-|
B----1------0---------3------8------------7------3------3-----3------1-----3-|
G----2------2---------3------5------------5------3------4-----3------2-----3-|
D----3------2---------3------7------------7------5------5-----3------3-----5-|
A----3------2---------1------5------------5------5------5-----1------3-----5-|
E----1------0---------x------X------------X------3------3-----x------1-----3-|

     F     Esus4      Bb      D7sus4     D7      Gm    G      Bb     F     Gm





Arrangement:

Section A x3
Interlude
Section B x2
Section A x2
Interlude
Section B x1 (start of outro solo)
Interlude
Section A x3
Interlude
Section A to fade


Solo:

Use subtle/not so subtle tremolo arm for certain accents

E--------------------------------------------------------|
B--------------------------------------------------------|
G--------------------------------------------------------|
D--------------------------------------------------------|
A-12-7-9-10-10-10-9-7 ---5-5-5--7------------------------|
E-----------------------------------7--8-3--5-6-6-6-5-3--|



E------------------------------------|
B------------------------------------|
G------------------------------------|
D------------------------------------|
A-------------------5-5-5------------|
E-1-3/5---6-6-6-5-3-------8-6-6-6--5-|


E--------------------------------------------------------|
B--------------------------------------------------------|
G--------------------------------------------------------|
D-12---7-9-10-10-10-9-7--5-5-5--7------------------------|
A---------------------------------7—12 ---7---9-10-10-10-|
E--------------------------------------------------------|


E--------------------------------|
B--------------------------------|
G--------------------------------|
D--------------------------------|
A-9-7--5-5-5---------------------|
E-------------7------------------|

(x3)

E--------------------|
B--------------------|
G-5--------7---------|
D-----5--------7-----|
A--------------------|
E--------------------|


E--------------------------------------------------------|
B--------------------------------------------------------|
G--------------------------------------------------------|
D-12---7-9-10-10-10-9-7--5-5-5--7------------------------|
A---------------------------------7—12 ---7---9-10-10-10-|
E--------------------------------------------------------|


E--------------------------------|
B--------------------------------|
G--------------------------------|
D--------------------------------|
A-9-7--5-5-5---------------------|
E-------------7------------------|

To fade…..
Suggest correction
comments
print report bad tab
1 comment total.
0 reply
Muzz_Dangerousl 40 wrote on May 3 2014, 09:46 pm

Second chord of section 1 is F#7sus4 2/E 4/A/2/D 4/6/2/B/2/E

This is from original poster, Muzz

guest
You may want to rate the tab now too:
select rating
Please do not post tabs as comments. Select "correction" instead!