Oops, an error
Loading. Please wait.

Sunny Sundae Smile Bass Tab

1,199 views 3 this week
no commentswrite comment
1 2 3 4 5
please rate
add to favorites
launch autoscroll
font size
0
reset
guitar tuner
Autoscroll
slow
fast
+/-
esc
set tempo
stop
Help us to improve Ultimate-Guitar.com Take our survey!
×
Author
intro/main guitar part riff
G------------------|
D------------------|
A-55555-s9---------|
E----------7777777-|


verse riff
G------------------------------------------------------------------------------------|
D------------------------------------------------------------------------------------|
A-5555-7-9----------5555-7-9---------5555-7-9----------5555-7-9-77777777777777777----|s0
E----------7777-9-7----------7777777----------7777-9-7-------------------------------|


chorus riff-
 lets' fall in love....
G----------------------------|
D----------------------------|x2
A------------------5-4-2-----|
E-5555555555555555-------0-2-|

outro riff
G----------------------------------|
D----------------------------------|
A---------------5-4-0-2------------|
E-55555555555555--------2222-5555--|
Suggest correction
Give kudos to tab author, rate the tab!
1 2 3 4 5
comments
print report bad tab
guest
You may want to rate the tab now too:
select rating
Please do not post tabs as comments. Select "correction" instead!