Oops, an error
Loading. Please wait.

To Here Knows When tab

version 4
version 4

Whole song

Interactive

1,636 views 15 this week
no commentswrite comment
1 2 3 4 5
2 more votes to show rating
add to favorites
×
Save as Personal and add changes to this tab that will be seen only by you. Learn more ›
×
You can save this tab as Personal to edit and correct it or add notes. All changes will be seen only by you. Learn more »
launch autoscroll
font size
0
reset
how to read this tab
guitar tuner
edit
Autoscroll
slow
fast
+/-
esc
set tempo
stop
My Bloody Valentine - To Here Knows When
Tuning: E B E E B e 440Hz capo on the 3rd fret
Transcribed by FUDGEcenter



intro: strum this a lot until the verse starts. He uses his left ring finger.
e|--0---------|
B|--8---------|
E|--0---------|
E|--0---------|
B|--0---------|
E|--0---------|


The verse and chorus are based on a 2013 show I went to in Chicago.. It looked to
me like he's gripping his fingers in the shape of power chords in the chorus.
I could be wrong but that's what it looked like in all the live vids I've seen.

verses:
e|--0--0--0---0---|
B|--8--7--0---0---|
E|--0--0--8/--10--|
E|--0--5--8/--10--|
B|--0--7--8/--10--|
E|--0--x--x---x---|   
                        
                                
chorus:
e|--0------0---0--|
B|--8--10--0---0--|
E|--0--10--10--0--|
E|--0--8---10--8--|
B|--0--0---8---8--|
E|--0--x---x---8--|



Play this @ 2:49-3:09
                 x2
e|--0----0--------|
B|--8----0--------|
E|--0----0--------|   
E|--0----8--------|
B|--0----8--------|
E|--0----8--------|



Play the chorus again @ 3:09-3:28
                  x2
e|--0------0---0---|
B|--8--10--0---0---|
E|--0--10--10--0---|
E|--0--8---10--8---|
B|--0--0---8---8---|
E|--0--x---x---8---|



Plat the rest of the song out
 
e|--0----0--------|
B|--8----0--------|
E|--0----0--------|
E|--0----8--------|
B|--0----8--------|
E|--0----8--------|




Codas:


Remastered Version from MBV Ep's 1988-1991 album. 

Still the same tuning with capo on 3rd fret.



First 3 chords start out with this. Strum this with LOTS of reverb...LOTS! 

e|------------|
B|------------|
E|-13--8---10-|
E|-13--8---10-|
B|-11--6---8--|
E|-11--6---8--|


then repeat the rest of this
 
e|-------------------------|
B|-------------------------|
E|-13--15--10-8--13--8--10-|
E|-13--15--10-8--13--6--8--|
B|-11--13--8--6--11--6--8--|
E|-11--13--8--6--11--6--8--|


For the other clean guitars or maybe 1 guitar playing in the background, I can't tell if he's
strumming one chord the whole time.

?                ?
e|---0-----|  or |--0---0---0--0--0--0---|
B|---0-----|     |--0---0---0 -0--0--0---|
E|---8-----|     |--13--15--10-8--8--10--|
E|---6-----|     |--13--15--10-5--6--8---|
B|---6-----|     |--11--13--8--5--6--8---|
E|---6-----|     |--11--13--8--5--6--8---|




Loveless version in E A D G B e


This is my best guess. Sounds about right to me when I played it back in reverse reverb and
tremolo arm.. Still not sure though.

e|-0--0--0---0-0-|
B|-0--0--0---0-0-|
G|-1--4--2---1-1-|
D|-2--2--2---2-2-|
A|-2--0--0---2-2-|
E|-0--x--x---0-0-|


            
            
Suggest correction
Creating personal tab
Creating personal tab
You can edit any tab online and save it as your Personal.

You can edit, replace or remove any tab part or add personal notes – all changes will be seen only by you.

Personal tabs can be accessed anytime from any device, even offline.
Learn more »
Give kudos to tab author, rate the tab!
1 2 3 4 5
comments
print report bad tab
guest
You may want to rate the tab now too:
select rating
Wanna post a correction for this tab? Suggest correction