Oops, an error
Loading. Please wait.

When You Sleep Chords

version 2
version 2

Whole song

Interactive

7,293 views 63 this week
2 commentsread comments
1 2 3 4 5
x 5
add to favorites
launch autoscroll
font size
0
reset
transpose
0
reset
simplify chords
display chords
guitar tuner
Autoscroll
slow
fast
+/-
esc
set tempo
stop
Help us to improve Ultimate-Guitar.com Take our survey!
×
Author
Difficulty
Capo
novice
4th fret
My Bloody Valentine - When You Sleep - Loveless (1991)


I also included the hook and a way to strum the chorus chords with the hook as well.

Chorus Hook <----------- NO Capo

E|--6--7--6------------------------4~~~~~-----|
B|-----------7----4--(4)--5--4----------------|
G|------------------------------4-------------|
D|--------------------------------------------|
A|--------------------------------------------|
E|--------------------------------------------|

Chorus Hook with Chords <--------- Capo on 4

    G             Asus2         C
E|--2--3--2--2-2-----------------0---0--0--3--3---0---0--0--0--0--0--0|
B|--0--0--0--3-3---0-0-1--0--0---1---1--1--1--1---1---1--1--1--1--1--1|
G|--0--0--0--0-0---2-2-2--2--0---0---0--0--0--0---0---0--0--0--0--0--0|
D|--0--0--0--0-0---2-2-2--2--2---2---2--2--2--2---2---2--2--2--2--2--2|
A|--2--2--2--2-2---0-0-0--0--0---3---3--3--3--3---3---3--3--3--3--3--3|
E|--3--3--3--3-3------------------------------------------------------|

Note: The G chord melody is played (a little awkwardly) like a normal G
but you have to shift your ring finger back a half step to do it.
Totally worth learning though.

And the chords...

G -320033
Asus2 -x02200
C -x32010
Em7 -020000
Bm -x24432

That's it.


Capo on 4


G - Asus2 - C (x4){or awesome chorus melody combo}


G
When I look at you
Em7
Oh, I don't know what's real
G
Once in a while
Asus2
And you make me laugh
G
And I'll see you tomorrow
Bm
And it won't be long
G
Once in a while
Asus2
Then you take me down
G
Then you walk away


G - Asus2 - C (x2){no hook - but it's up to you}


G
When you say 'I do'
Em7
Oh, I don't believe you
G
I can't forget it
Asus2
No...
G
When you sleep tomorrow
Bm
And it won't be long
G
Once in a while
Asus2
When you make me smile
G
When you turn your long blond hair


G - Asus2 - C (x4)


G
When I look at you
Em7
Oh, I don't know what's real
G
Once in a while
Asus2
And you make me laugh
G
And I'll sleep tomorrow
Bm
And it won't be long
G
Once in a while
Asus2
Then you take me down
G
When you walk away


G - Asus2 - C (x8)


End on G -32003x
Suggest correction
comments
print report bad tab
2 comments total.
0 reply
branderson39 10 Mar 02, 2015 08:08 PM

Nice job. Sounds perfect if you play 32003x for the last G chord in the chorus.

0 reply
NotRadford 42 Nov 05, 2016 12:33 PM

Thanks man. Threw it in there at the end. Glad you enjoyed it.

guest
You may want to rate the tab now too:
select rating
Wanna post a correction for this tab? Suggest correction