Oops, an error
Loading. Please wait.

When You Sleep Chords

version 2
version 2

Whole song

Interactive

9,990 views 78 this week
2 commentsread comments
1 2 3 4 5
x 7
add to favorites
×
Save as Personal and add changes to this tab that will be seen only by you. Learn more ›
×
You can save this tab as Personal to edit and correct it or add notes. All changes will be seen only by you. Learn more »
save as personal
new!
launch autoscroll
font size
0
reset
transpose
0
reset
simplify chords
display chords
guitar tuner
backing track
0:00
0:00
Autoscroll
slow
fast
+/-
esc
set tempo
stop
Author
Difficulty
Capo
novice
4th fret
Strumming Is this strumming pattern correct? Yes No
Song 129 bpm
1
&
2
&
3
&
4
&
Listen
When You Sleep - Loveless (1991) - My Bloody Valentine


Chorus Hook <----------- NO Capo

    G                   Asus2              C
e|--6----7--6------------------------------4~~~~----|
B|-----------------7----4--(4)--5--4----------------|
G|--------------------------------------4-----------|
D|--------------------------------------------------|
A|--------------------------------------------------|
E|--------------------------------------------------|

Chorus Hook with Chords <--------- Capo on 4

    G                    Asus2                C             
e|--2----3--2----2--2--------------------0----0----0--0----3----0----0--0--0--0--0--0--0--|
B|--0----0--0----3--3----0--0--1--0------0----1----1--1----1----1----1--1--1--1--1--1--1--|
G|--0----0--0----0--0----2--2--2--2------0----0----0--0----0----0----0--0--0--0--0--0--0--|
D|--0----0--0----0--0----2--2--2--2------2----2----2--2----2----2----2--2--2--2--2--2--2--|
A|--2----2--2----2--2----0--0--0--0------0----3----3--3----3----3----3--3--3--3--3--3--3--|
E|--3----3--3----3--3---------------------------------------------------------------------|

--The medley is played by making an open G shape with your ring finger on the 2nd fret of the high E string--
                                   {320003}


G - 320033
Asus2 - x02200
C - x32010
Em7 - 020000
Bm - x24432


-Capo on 4-


[Chorus 1]
G Asus2 C (x4) -w/hook-


[Verse 1]
G
When I look at you
Em7
Oh, I don't know what's real
G
Once in a while
Asus2
And you make me laugh
G
And I'll see you tomorrow
Bm
And it won't be long
G
Once in a while
Asus2
Then you take me down
G
Then you walk away


[Chorus 2]
G Asus2 C (x2) -no hook-


[Verse 2]
G
When you say 'I do'
Em7
Oh, I don't believe you
G
I can't forget it
Asus2
No...
G
When you sleep tomorrow
Bm
And it won't be long
G
Once in a while
Asus2
When you make me smile
G
When you turn your long blond hair


[Chorus 3]
G Asus2 C (x4) -w/hook-


[Verse 3]
G
When I look at you
Em7
Oh, I don't know what's real
G
Once in a while
Asus2
And you make me laugh
G
And I'll sleep tomorrow
Bm
And it won't be long
G
Once in a while
Asus2
Then you take me down
G
When you walk away


[Chorus 4]
G Asus2 C (x8) -w/hook-


End on G -32003x
Suggest correction
comments
print report bad tab
2 comments total.
0 reply
branderson39 10 Mar 02, 2015 03:08 PM

Nice job. Sounds perfect if you play 32003x for the last G chord in the chorus.

guest
You may want to rate the tab now too:
select rating
Wanna post a correction for this tab? Suggest correction