Oops, an error
Loading. Please wait.

When You Sleep tab

version 4
version 4

Whole song

  • This is how the song is played according to a roadie who traveled with the band.

Interactive

277 views 9 this week
no commentswrite comment
1 2 3 4 5
x 4
add to favorites
×
Save as Personal and add changes to this tab that will be seen only by you. Learn more ›
×
You can save this tab as Personal to edit and correct it or add notes. All changes will be seen only by you. Learn more »
launch autoscroll
font size
0
reset
how to read this tab
guitar tuner
backing track
0:00
0:00
edit
Autoscroll
slow
fast
+/-
esc
set tempo
stop
About this tab version
This is how the song is played according to a roadie who traveled with the band. Was this info helpful? Yes No
-------------------------------------------------------------------------------
                             WHEN YOU SLEEP – My Bloody Valentine
-------------------------------------------------------------------------------
Tabbed by: jma1111

Tuning: Eb Standard

This is how the song is played according to a roadie who traveled with MBV during the Loveless tours.
Strum and use the glide technique with the tremolo bar in your hand to get the correct sound.
             

Intro: 

eb|----3------------5------------10---|
Bb|----5------------7------------10---|
Gb|----5------------7------------10---|
Db|----5------------7------------10---|
Ab|----3------------5------------8----|
Eb|----3------------5------------8----|

Verse:

"When I look at you...    Oh, I don't know what's real..."

eb|----3------------|--------0--------|
Bb|----3------------|--------0--------|
Gb|----5------------|--------5--------|
Db|----5------------|--------5--------|
Ab|----3------------|--------0--------|
Eb|----3------------|--------0--------|

"Once in a while...   And you make me laugh..."

eb|----3------------|----0------------|
Bb|----5------------|----5------------|
Gb|----5------------|----5------------|
Db|----3------------|----0------------|
Ab|----3------------|----0------------|
Eb|----3------------|----0------------|

This is the last chord of the verse before
returning to the intro part:

"Then you walk away..."


eb|----3------------------------------|
Bb|----5------------------------------|
Gb|----5------------------------------|
Db|----3------------------------------|
Ab|----3------------------------------|
Eb|----3------------------------------|
Suggest correction
Creating personal tab
Creating personal tab
You can edit any tab online and save it as your Personal.

You can edit, replace or remove any tab part or add personal notes – all changes will be seen only by you.

Personal tabs can be accessed anytime from any device, even offline.
Learn more »
comments
print report bad tab
guest
You may want to rate the tab now too:
select rating
Wanna post a correction for this tab? Suggest correction