Oops, an error
Loading. Please wait.

You Made Me Realise Tab

version 2
version 2

Whole song

4,902 views 27 this week
3 commentsread comments
1 2 3 4 5
x 5
add to favorites
launch autoscroll
font size
0
reset
how to read this tab
guitar tuner
Autoscroll
slow
fast
+/-
esc
set tempo
stop
Help us to improve Ultimate-Guitar.com Take our survey!
×
Author
You Made Me Realise. Guitar Tab

E.A.D.G.B.e. (Standard)

Listen to the song for Tremolo Glider Dips & Strumming Pattern

[Intro/Main Riff]
e|----------------------------------------------------|
B|----------------------------------------------------| 
G|-9-9-9-9---9-9-9-9---9-9-9-9-9---14-14-14-14-14-14--| 
D|-8-8-8-8---8-8-8-8---8-8-8-8-8---13-13-13-13-13-13--| 
A|-7-7-7-7---7-7-7-7---7-7-7-7-7---12-12-12-12-12-12--| 
E|----------------------------------------------------|

[Verse] (The bit that everybody tabs/plays wrong)
e|----------------------------------------------| 
B|----------------------------------------------| 
G|-9-9-9-9-9---12-12-12-12-12-12-12-12-12-12----| 
D|-9-9-9-9-9---12-12-12-12-12-12-12-12-12-12----| 
A|-7-7-7-7-7---10-10-10-10-10-10-10-10-10-10----| 
E|----------------------------------------------|

[Verse] (Cont.)
e|--------------------------------------------------| 
B|--------------------------------------------------| 
G|-14-14-14-14-14-(9/)-7-7-7-7-7-7-7-7-7-7-7-7-7----| 
D|-14-14-14-14-14-(9/)-7-7-7-7-7-7-7-7-7-7-7-7-7----| 
A|-12-12-12-12-12-(7/)-5-5-5-5-5-5-5-5-5-5-5-5-5----| 
E|--------------------------------------------------|

[Pre-Chorus]
e|--------------------------------------------| 
B|--------------------------------------------| 
G|-9-9-9--7--5-5-5-5--7--9-9-9--7--5-5-5-5-5--| 
D|-9-9-9--7--5-5-5-5--7--9-9-9--7--5-5-5-5-5--| 
A|-7-7-7--5--3-3-3-3--5--7-7-7--5--3-3-3-3-3--| 
E|--------------------------------------------|

Pre-Chorus: (Cont.)
e|---------------------|-----------------| 
B|---------------------|-----------------| 
G|-2-2-2-2--5-5-5-5-5--|-9-9-7-7-5-------| 
D|-2-2-2-2--5-5-5-5-5--|-9-9-7-7-5-------| 
A|-0-0-0-0--3-3-3-3-3--|-7-7-5-5-3-------| 
E|---------------------|-----------------|

[Intro/Main Riff]
e|----------------------------------------------------|
B|----------------------------------------------------| 
G|-9-9-9-9---9-9-9-9---9-9-9-9-9---14-14-14-14-14-14--| 
D|-8-8-8-8---8-8-8-8---8-8-8-8-8---13-13-13-13-13-13--| 
A|-7-7-7-7---7-7-7-7---7-7-7-7-7---12-12-12-12-12-12--| 
E|----------------------------------------------------|

[Verse]
e|----------------------------------------------| 
B|----------------------------------------------| 
G|-9-9-9-9-9---12-12-12-12-12-12-12-12-12-12----| 
D|-9-9-9-9-9---12-12-12-12-12-12-12-12-12-12----| 
A|-7-7-7-7-7---10-10-10-10-10-10-10-10-10-10----| 
E|----------------------------------------------|

[Verse] (Cont.)
e|--------------------------------------------------| 
B|--------------------------------------------------| 
G|-14-14-14-14-14-(9/)-7-7-7-7-7-7-7-7-7-7-7-7-7----| 
D|-14-14-14-14-14-(9/)-7-7-7-7-7-7-7-7-7-7-7-7-7----| 
A|-12-12-12-12-12-(7/)-5-5-5-5-5-5-5-5-5-5-5-5-5----| 
E|--------------------------------------------------|

[Pre-Chorus]
e|--------------------------------------------| 
B|--------------------------------------------| 
G|-9-9-9--7--5-5-5-5--7--9-9-9--7--5-5-5-5-5--| 
D|-9-9-9--7--5-5-5-5--7--9-9-9--7--5-5-5-5-5--| 
A|-7-7-7--5--3-3-3-3--5--7-7-7--5--3-3-3-3-3--| 
E|--------------------------------------------|

[Pre-Chorus] (Cont.)
e|---------------------|-----------------| 
B|---------------------|-----------------| 
G|-2-2-2-2--5-5-5-5-5--|-9-9-7-7-5-------| 
D|-2-2-2-2--5-5-5-5-5--|-9-9-7-7-5-------| 
A|-0-0-0-0--3-3-3-3-3--|-7-7-5-5-3-------| 
E|---------------------|-----------------|

[Intro/Main Riff]
e|----------------------------------------------------|
B|----------------------------------------------------| 
G|-9-9-9-9---9-9-9-9---9-9-9-9-9---14-14-14-14-14-14--| 
D|-8-8-8-8---8-8-8-8---8-8-8-8-8---13-13-13-13-13-13--| 
A|-7-7-7-7---7-7-7-7---7-7-7-7-7---12-12-12-12-12-12--| 
E|----------------------------------------------------|

[Bridge]
e|------------------------------------------| 
B|------------------------------------------| 
G|------------------------------------------| 
D|-5-5-5-5-5-7-7-7-7-7-5-5-5-5-5-7-7-7-7-7--| 
A|-5-5-5-5-5-7-7-7-7-7-5-5-5-5-5-7-7-7-7-7--| 
E|-3-3-3-3-3-5-5-5-5-5-3-3-3-3-3-5-5-5-5-5--|

[Bridge Lead] (Repeatedly Pick the Notes)
e|----------------------------------------| 
B|-3----------5---------3---------3-------| 
G|-5bu(7)-----7bu(9)----5bu(7)----5bu(7)--| 
D|----------------------------------------| 
A|----------------------------------------| 
E|----------------------------------------|

[Bridge] (Cont.)
e|---------------------|------------------| 
B|---------------------|------------------| 
G|---------------------|-----------5------| 
D|-5-5-5-5-5-7-7-7-7-7-|-5-5--7-7--5------| 
A|-5-5-5-5-5-7-7-7-7-7-|-5-5--7-7--3------| 
E|-3-3-3-3-3-5-5-5-5-5-|-3-3--5-5---------|

[Bridge Lead] (Cont.)
e|---------------------------------------------| 
B|-3---------5----------3------5------8--------| 
G|-5bu(7)----7bu(9)-----5bu(7)-7bu(9)-10bu(12)-| 
D|---------------------------------------------| 
A|---------------------------------------------| 
E|---------------------------------------------|

*PICK NOTES REPEATEDLY*
e|----------------------------| 
B|-8--------------------------| 
G|-10bu(12)-------------------| 
D|----------------------------| 
A|----------------------------| 
E|----------------------------|

*NOISE*

[Intro/Main Riff]
e|----------------------------------------------------|
B|----------------------------------------------------| 
G|-9-9-9-9---9-9-9-9---9-9-9-9-9---14-14-14-14-14-14--| 
D|-8-8-8-8---8-8-8-8---8-8-8-8-8---13-13-13-13-13-13--| 
A|-7-7-7-7---7-7-7-7---7-7-7-7-7---12-12-12-12-12-12--| 
E|----------------------------------------------------|

[Verse]
e|----------------------------------------------| 
B|----------------------------------------------| 
G|-9-9-9-9-9---12-12-12-12-12-12-12-12-12-12----| 
D|-9-9-9-9-9---12-12-12-12-12-12-12-12-12-12----| 
A|-7-7-7-7-7---10-10-10-10-10-10-10-10-10-10----| 
E|----------------------------------------------|

[Verse] (Cont.)
e|--------------------------------------------------| 
B|--------------------------------------------------| 
G|-14-14-14-14-14-(9/)-7-7-7-7-7-7-7-7-7-7-7-7-7----| 
D|-14-14-14-14-14-(9/)-7-7-7-7-7-7-7-7-7-7-7-7-7----| 
A|-12-12-12-12-12-(7/)-5-5-5-5-5-5-5-5-5-5-5-5-5----| 
E|--------------------------------------------------|

[Pre-Chorus]
e|--------------------------------------------| 
B|--------------------------------------------| 
G|-9-9-9--7--5-5-5-5--7--9-9-9--7--5-5-5-5-5--| 
D|-9-9-9--7--5-5-5-5--7--9-9-9--7--5-5-5-5-5--| 
A|-7-7-7--5--3-3-3-3--5--7-7-7--5--3-3-3-3-3--| 
E|--------------------------------------------|

[Pre-Chorus] (Cont.)
e|---------------------|-----------------| 
B|---------------------|-----------------| 
G|-2-2-2-2--5-5-5-5-5--|-9-9-7-7-5-------| 
D|-2-2-2-2--5-5-5-5-5--|-9-9-7-7-5-------| 
A|-0-0-0-0--3-3-3-3-3--|-7-7-5-5-3-------| 
E|---------------------|-----------------|

[Intro/Main Riff]
e|----------------------------------------------------|
B|----------------------------------------------------| 
G|-9-9-9-9---9-9-9-9---9-9-9-9-9---14-14-14-14-14-14--| 
D|-8-8-8-8---8-8-8-8---8-8-8-8-8---13-13-13-13-13-13--| 
A|-7-7-7-7---7-7-7-7---7-7-7-7-7---12-12-12-12-12-12--| 
E|----------------------------------------------------|

[End Bit]
e|-------------| 
B|-------------| 
G|-----5-5-----| 
D|-5-5-5-5--7--| 
A|-5-5-3-3--7--| 
E|-3-3------5--|
Suggest correction
comments
print report bad tab
3 comments total.
0 reply
nathanshawyer11 56 Apr 05, 2013 05:52 AM

This one looks like how kevin played it live recently so I think this one is right

0 reply
catmandinko 348 Nov 25, 2014 10:14 AM

---------------------------------------------------
----------------------------------1010---10--10----
--9-9-99-----9-9-99-----9-9-99--0--8-8--0-8-0-8----
--8-8-88-----8-8-88-----8-8-88--0--7-7--0-7-0-7----
--7-7-77-----7-7-77-----7-7-77--0--0-0--0-0-0-0----
--0-0-00-10--0-0-00-10--0-0-00---------------------

0 reply
regnavblod 10 Sep 29, 2016 06:08 PM

e|-----8---------------------------------------|
B|-----9---------------------------------------|
G|-9--|10 9 7
D|-9-| 10 14 9 7
A|-7-| 12 7 5
E----------------------------------------------

guest
You may want to rate the tab now too:
select rating
Wanna post a correction for this tab? Suggest correction