Oops, an error
Loading. Please wait.

All I Want For Christmas Is You Bass Tab

version 2
version 2

Whole song

Interactive

3,481 views 1 this week
1 commentread comment
1 2 3 4 5
please rate
add to favorites
launch autoscroll
font size
0
reset
guitar tuner
Tab Pro tools
  • play this tab
  • loop segment
  • change instrument
  • show fretboard
  • metronome
×
Best way to learn
"All I Want For Christmas Is You"
Autoscroll
slow
fast
+/-
esc
set tempo
stop
Contributor
#----------------------------------PLEASE NOTE---------------------------------#
#This file is the author's own work and represents their interpretation of the #
#song. You may only use this file for private study, scholarship, or research. #
#------------------------------------------------------------------------------#

ALL I WANT FOR CHRISTMAS IS YOU (Bassline)
As recorded by My Chemical Romance

Transcribed by karlitomarsh
	



Gtr I (E A D G) - 'Mickey Way'

 Intro
  Moderate  Q=67
 4/4
  Gtr I
  Wx11
|---------||
|---------||
|---------||
|---------||


 Verse 1
  Moderately Fast  Q=164
  E E E E E E E E   E E E E E E E E   E E E E E E E E   E E E E E E E E
|-----------------|-----------------|-----------------|-----------------|
|-----------------|-----------------|-----------------|-----------------|
|-----------------|-----------------|-----------------|-----------0-1-2-|
|-3-3-3-3-3-3-3-3-|-3-3-3-3-3-3-3-3-|-3-3-3-3-3-3-3-3-|-3-3-3-3-3-------|


  E E E E E E E E   E E E E E E E E   E E E E E E E E   E E E E E E E E
|-----------------|-----------------|-----------------|-----------------|
|-----------------|-----------------|-----------------|-----------------|
|-3-3-3-3-3-3-3-3-|-3-3-3-3-3-3-3-3-|-6-6-6-6-6-6-6-6-|-6-6-6-6-6-------|
|-----------------|-----------------|-----------------|-----------0-1-2-|


  E E E E E E E E   E E E E E E E E   E E E E E E E E   E E E E E E E E
|-----------------|-----------------|-----------------|-----------------|
|-----------------|-----------------|-----------------|-----------------|
|-----------------|-----------------|-----------------|-----------0-1-2-|
|-3-3-3-3-3-3-3-3-|-3-3-3-3-3-3-3-3-|-3-3-3-3-3-3-3-3-|-3-3-3-3-3-------|


  E E E E E E E E   E E E E E E E E   H    H      W
|-----------------|-----------------|-----------|------||
|-----------------|-----------------|-----------|------||
|-3-3-3-3-3-3-3-3-|-3-3-3-3-3-3-3-3-|-6----6----|-6----||
|-----------------|-----------------|-----------|------||


 Chorus
  E E E E E E E E   E E E E E E E E   E E E E E E E E   E E E E E E E E
|-----------------|-----------------|-----------------|-----------------|
|-----------------|-----------------|-----------------|-----------------|
|-----------------|-----------------|-----------------|---------6-6-6-6-|
|-3-3-3-3-3-3-3-3-|-3-3-3-3-2-2-2-2-|-0-0-0-0-0-0-0-0-|-0-0-0-0---------|


  E E E E E E E E   E E E E E E E E   E E E E E E E E   E E E E E E E E
|-----------------|-----------------|-----------------|-----------------|
|-----------------|-----------------|-----------------|-----------------|
|-5-5-5-5-5-5-5-5-|-7-7-7-7-7-7-7-7-|-----------------|-5-5-5-5-5-5-5-5-|
|-----------------|-----------------|-5-5-5-5-5-5-5-5-|-----------------|


                                                        |-3-|
  E E E E E E E E   E E E E E E E E   E E E E E E E E   q q q H
|-----------------|-----------------|-----------------|------------||
|-----------------|-----------------|-----------------|------------||
|-----------------|-----------------|-----------------|-5-5-5-5----||
|-3-3-3-3-3-3-3-3-|-0-0-0-0-0-0-0-0-|-5-5-5-5-5-5-5-5-|------------||


 Verse 2
  E E E E E E E E   E E E E E E E E   E E E E E E E E   E E E E E E E E
|-----------------|-----------------|-----------------|-----------------|
|-----------------|-----------------|-----------------|-----------------|
|-----------------|-----------------|-----------------|-----0---1---2---|
|-3---3---3---3---|-3---3---3---3---|-3---3---3---3---|-3---------------|


  E E E E E E E E   E E E E E E E E   E E E E E E E E   E E E E E E E E
|-----------------|-----------------|-----------------|-----------------|
|-----------------|-----------------|-----------------|-----------------|
|-6---6---6---6---|-6---------------|-----------------|-----------------|
|-----------------|-----0---1---2---|-3---3---3---3---|-3---3---3---3---|


  E E E E E E E E   E E E E E E E E   E E E E E E E E   E E E E E E E E
|-----------------|-----------------|-----------------|-----------------|
|-----------------|-----------------|-----------------|-----------------|
|-----------------|-----------------|-----------------|-----0---1---2---|
|-3---3---3---3---|-3---3---3---3---|-3---3---3---3---|-3---------------|


  E E E E E E E E   E E E E E E E E   H    H      W
|-----------------|-----------------|-----------|------||
|-----------------|-----------------|-----------|------||
|-3---3---3---3---|-3---3---3---3---|-6----6----|-6----||
|-----------------|-----------------|-----------|------||


 Chorus
  E E E E E E E E   E E E E E E E E   E E E E E E E E   E E E E E E E E
|-----------------|-----------------|-----------------|-----------------|
|-----------------|-----------------|-----------------|-----------------|
|-----------------|-----------------|-----------------|---------6-6-6-6-|
|-3-3-3-3-3-3-3-3-|-3-3-3-3-2-2-2-2-|-0-0-0-0-0-0-0-0-|-0-0-0-0---------|


  E E E E E E E E   E E E E E E E E   E E E E E E E E   E E E E E E E E
|-----------------|-----------------|-----------------|-----------------|
|-----------------|-----------------|-----------------|-----------------|
|-5-5-5-5-5-5-5-5-|-7-7-7-7-7-7-7-7-|-----------------|-5-5-5-5-5-5-5-5-|
|-----------------|-----------------|-5-5-5-5-5-5-5-5-|-----------------|


                                                        |-3-|
  E E E E E E E E   E E E E E E E E   E E E E E E E E   q q q H
|-----------------|-----------------|-----------------|------------||
|-----------------|-----------------|-----------------|------------||
|-----------------|-----------------|-----------------|-5-5-5-6----||
|-3-3-3-3-3-3-3-3-|-0-0-0-0-0-0-0-0-|-5-5-5-5-5-5-5-5-|------------||


 Bridge/Solo
  q  q  q  q    q  q  q  q    q  q  q  q    q  q  q  q
|-------------|-------------|-------------|-------------|
|-------------|-------------|-------------|-------------|
|-2--2--2--2--|-2--0--------|-------------|-------------|
|-------------|-------3--2--|-0--0--0--0--|-0--0--0--0--|


  q  q  q  q    q  q  q  q    q  q  q  q    q  q  q  q
|-------------|-------------|-------------|-------------|
|-------------|-------------|-------------|-------------|
|-2--2--2--2--|-2--0--------|-------------|-------------|
|-------------|-------3--2--|-0--0--0--0--|-0--0--0--0--|


  q  q  q  q    q  q  q  q    q  q  q  q    q  q  q  q
|-------------|-------------|-------------|-------------|
|-------------|-------------|-------------|-------------|
|-6--6--6--6--|-6--6--6--6--|-5--5--5--5--|-7--7--7--7--|
|-------------|-------------|-------------|-------------|


  q  q  q  q    q  q  q  q    q  q  q  q    W
|-------------|-------------|-------------|------||
|-------------|-------------|-------------|------||
|-------------|-------------|-5--5--5--5--|-6----||
|-5--5--5--5--|-5--5--5--5--|-------------|------||


 Verse 3
  Wx8
|--------|
|--------|
|--------|
|--------|


  Slower Q=150
  Q  Q  Q  Q    Q  Q  Q  Q    Q  Q  Q  Q    Q  Q  Q  Q
|-------------|-------------|-------------|-------------|
|-------------|-------------|-------------|-------------|
|-------------|-------2--2--|-------------|-------6--6--|
|-3--3--3--3--|-3--3--------|-0--0--0--0--|-0--0--------|


  Q  Q  Q  Q    Q  Q  Q  Q    Q  Q  Q  Q    W          W
|-------------|-------------|-------------|----------|------||
|-------------|-------------|-------------|----------|------||
|-5--5--5--5--|-7--7--7--7--|-------------|-5--------|-5----||
|-------------|-------------|-5--5--5--5--|----------|------||


 Outro
  E E E E E E E E   E E E E E E E E   E E E E E E E E   E E E E E E E E
|-----------------|-----------------|-----------------|-----------------|
|-----------------|-----------------|-----------------|-----------------|
|-----------------|-----------------|-----------------|-5-5-5-5-5-5-5-5-|
|-3-3-3-3-3-3-3-3-|-0-0-0-0-0-0-0-0-|-5-5-5-5-5-5-5-5-|-----------------|


  E E E E E E E E   E E E E E E E E   E E E E E E E E   E E E E E E E E
|-----------------|-----------------|-----------------|-----------------|
|-----------------|-----------------|-----------------|-----------------|
|-----------------|-----------------|-----------------|-5-5-5-5-5-5-5-5-|
|-3-3-3-3-3-3-3-3-|-0-0-0-0-0-0-0-0-|-5-5-5-5-5-5-5-5-|-----------------|


  E E E E E E E E   E E E E E E E E   E E E E E E E E   E E E E E E E E
|-----------------|-----------------|-----------------|-----------------|
|-----------------|-----------------|-----------------|-----------------|
|-----------------|-----------------|-----------------|-5-5-5-5-5-5-5-5-|
|-3-3-3-3-3-3-3-3-|-0-0-0-0-0-0-0-0-|-5-5-5-5-5-5-5-5-|-----------------|


  E E E E E E E E   E E E E E E E E   E E E E E E E E   E E E E E E E E
|-----------------|-----------------|-----------------|-----------------|
|-----------------|-----------------|-----------------|-----------------|
|-----------------|-----------------|-----------------|-5-5-5-5-5-5-5-5-|
|-3-3-3-3-3-3-3-3-|-0-0-0-0-0-0-0-0-|-5-5-5-5-5-5-5-5-|-----------------|


  E E E E E E E E   E E E E E E E E   E E E E E E E E   E E E E E E E E
|-----------------|-----------------|-----------------|-----------------|
|-----------------|-----------------|-----------------|-----------------|
|-----------------|-----------------|-----------------|-5-5-5-5-5-5-5-5-|
|-3-3-3-3-3-3-3-3-|-0-0-0-0-0-0-0-0-|-5-5-5-5-5-5-5-5-|-----------------|


  E E E E E E E E   E E E E E E E E   E E E E E E E E   E E E E E E E E
|-----------------|-----------------|-----------------|-----------------|
|-----------------|-----------------|-----------------|-----------------|
|-----------------|-----------------|-----------------|-5-5-5-5-5-5-5-5-|
|-3-3-3-3-3-3-3-3-|-0-0-0-0-0-0-0-0-|-5-5-5-5-5-5-5-5-|-----------------|


  E E E E E E E E   E E E E E E E E   E E E E E E E E   E E E E E E E E
|-----------------|-----------------|-----------------|-----------------|
|-----------------|-----------------|-----------------|-----------------|
|-----------------|-----------------|-----------------|-5-5-5-5-5-5-5-5-|
|-3-3-3-3-3-3-3-3-|-0-0-0-0-0-0-0-0-|-5-5-5-5-5-5-5-5-|-----------------|


  E E E E E E E E   E E E E E E E E   E E E E E E E E   E E E E E E E E
|-----------------|-----------------|-----------------|-----------------*|
|-----------------|-----------------|-----------------|-----------------*|
|-----------------|-----------------|-----------------|-5-5-5-5-5-5-5-5-*|
|-3-3-3-3-3-3-3-3-|-0-0-0-0-0-0-0-0-|-5-5-5-5-5-5-5-5-|-----------------*|



Duration Legend
---------------
W - whole; H - half; Q - quarter; E - 8th; S - 16th; T - 32nd; X - 64th; a - acciaccatura
+ - note tied to previous; . - note dotted; .. - note double dotted
Uncapitalized letters represent notes that are staccato (1/2 duration)
Irregular groupings are notated above the duration line
Duration letters will always appear directly above the note/fret number it represents the
duration for.  Duration letters with no fret number below them represent rests.  Multi-
bar rests are notated in the form Wxn, where n is the number of bars to rest for.  Low
melody durations appear below the staff

Tablature Legend
----------------
 h   - hammer-on
 p   - pull-off
 b   - bend
 pb  - pre-bend
 r   - bend release (if no number after the r, then release immediately)
 /\  - slide into or out of (from/to "nowhere")
 s   - legato slide
 S   - shift slide
 - natural harmonic
[n]  - artificial harmonic
n(n) - tapped harmonic
 ~   - vibrato
 tr  - trill
 T   - tap
 TP  - trem. picking
 PM  - palm muting
\n/  - tremolo bar dip; n = amount to dip
 \n  - tremolo bar down
 n/  - tremolo bar up
/n\  - tremolo bar inverted dip
 =   - hold bend; also acts as connecting device for hammers/pulls
 <> - volume swell (louder/softer)
 x   - on rhythm slash represents muted slash
 o   - on rhythm slash represents single note slash

Misc Legend
-----------
 |  - bar
||  - double bar
||o - repeat start
o|| - repeat end
*|  - double bar (ending)
 :  - bar (freetime)
 $  - Segno
 &  - Coda
Tempo markers -  = BPM(8/16=s8/s16), where s8 = swing 8ths, s16 = swing 16ths

comments
We did not receive enough feedback on this tab! Please rate:
print report bad tab
1 2 3 4 5
1 comment total.
0 reply
KilljoyBassist wrote on November 27 2013, 09:39 pm, edited at 09:39 pm

ITS MIKEY NOT MICKEY!Sweet tab none the less.

I want to post or [tab]
guest
You may want to rate the tab now too:
select rating
Please do not post tabs as comments. Select "correction" instead!