Oops, an error
Loading. Please wait.

All The Angels Tab

version 1
version 1

Intro

Whole song

1,753 views 12 this week
2 commentsread comments
1 2 3 4 5
x 4
add to favorites
launch autoscroll
font size
0
reset
how to read this tab
guitar tuner
Autoscroll
slow
fast
+/-
esc
set tempo
stop
Difficulty
novice
This is only the intro of All the Angels (just came out yesterday)


e|-----------------------------|
B|-----------------------------|
G|-----------------------------|
D|----------------4------------|
A|-------2--4--5-----5--4--2---|
E|--2--3-----------------------|

e|-----------------------------|
B|-----------------------------|
G|-----------------(whammy)----|
D|------------------4----------|
A|-------2--4--5----4----------|
E|--2--3------------2----------|
Suggest correction
comments
print report bad tab
2 comments total.
0 reply
PurpleMoon 30 Sep 25, 2016 12:56 AM

yay, I kept checking to see if anyone put up tabs yet since it's release yesterday and even though it's just the intro it's better than nothing

guest
You may want to rate the tab now too:
select rating
Wanna post a correction for this tab? Suggest correction