Oops, an error
Loading. Please wait.

All The Angels Tab

version 1
version 1

Whole song

1,342 views 75 this week
no commentswrite comment
1 2 3 4 5
x 7
add to favorites
launch autoscroll
font size
0
reset
how to read this tab
guitar tuner
Autoscroll
slow
fast
+/-
esc
set tempo
stop
Help us to improve Ultimate-Guitar.com Take our survey!
×
Author
Difficulty
novice
[Verse]
e|-------------------2------|
B|---------3-------2---3~~--|
G|-------4---4---3-----4~~--|
D|---4-5-------4-------4~~--|
A|---------------------2~~--|
E|--------------------------|


e|------------------2-----------------|
B|--------3-------2-------3---5-3-----|
G|------4---4---3-----3h4---4---------|
D|--4-5-------4-------------------5~--|
A|------------------------------------|
E|------------------------------------|

e|-------------------2------|
B|---------3-------2---3~~--|
G|-------4---4---3-----4~~--|
D|---4-5-------4-------4~~--|
A|---------------------2~~--|
E|--------------------------|


e|------------------2-----------------|
B|--------3-------2-------3---5-3-----|
G|------4---4---3-----3h4---4---------|
D|--4-5-------4-------------------5~--|
A|------------------------------------|
E|------------------------------------|

e|-------------------2------|
B|---------3-------2---3~~--|
G|-------4---4---3-----4~~--|
D|---4-5-------4-------4~~--|
A|---------------------2~~--|
E|--------------------------|


[Chorus]
e|--3~-3-3-3---2-2~-2-2-2-----------------------|
B|--3~-3-3-3---2-2~-2-2-2--3~-3-3-3--3-3-3-3-3--|
G|--4~-4-4-4-X-3-3~-3-3-3--4~-4-4-4--4-4-4-4-4--|
D|--5~-5-5-5-X-4-4~-4-4-4--4~-4-4-4--4-4-4-4-4--|
A|--5~-5-5-5-X-4-4~-4-4-4--2~-2-2-2--2-2-2-2-2--|
E|--3~-3-3-3-X-2-2~-2-2-2-----------------------|

e|--3~-3-3-3---2-2~-2-2-2-----------------------|
B|--3~-3-3-3---2-2~-2-2-2--3~-3-3-3-------------|
G|--4~-4-4-4-X-3-3~-3-3-3--4~-4-4-4--4-4-4-4-4--|
D|--5~-5-5-5-X-4-4~-4-4-4--4~-4-4-4--4-4-4-4-4--|
A|--5~-5-5-5-X-4-4~-4-4-4--2~-2-2-2--0-0-0-0-0--|
E|--3~-3-3-3-X-2-2~-2-2-2-----------------------|

e|--3~-3-3-3---2-2~-2-2-2-----------------------|
B|--3~-3-3-3---2-2~-2-2-2--3~-3-3-3--3-3-3-3-3--|
G|--4~-4-4-4-X-3-3~-3-3-3--4~-4-4-4--4-4-4-4-4--|
D|--5~-5-5-5-X-4-4~-4-4-4--4~-4-4-4--4-4-4-4-4--|
A|--5~-5-5-5-X-4-4~-4-4-4--2~-2-2-2--2-2-2-2-2--|
E|--3~-3-3-3-X-2-2~-2-2-2-----------------------|

e|--3~-3-3-3---2-2~-2-2-2------|
B|--3~-3-3-3---2-2~-2-2-2--3~--|
G|--4~-4-4-4-X-3-3~-3-3-3--4~--|
D|--5~-5-5-5-X-4-4~-4-4-4--4~--|
A|--5~-5-5-5-X-4-4~-4-4-4--2~--|
E|--3~-3-3-3-X-2-2~-2-2-2------|


[Verse]
e|------------------2-----------------|
B|--------3-------2-------3---5-3-----|
G|------4---4---3-----3h4---4---------|
D|--4-5-------4-------------------5~--|
A|------------------------------------|
E|------------------------------------|

e|-------------------2------|
B|---------3-------2---3~~--|
G|-------4---4---3-----4~~--|
D|---4-5-------4-------4~~--|
A|---------------------2~~--|
E|--------------------------|


e|------------------2-----------------|
B|--------3-------2-------3---5-3-----|
G|------4---4---3-----3h4---4---------|
D|--4-5-------4-------------------5~--|
A|------------------------------------|
E|------------------------------------|

e|-------------------2------|
B|---------3-------2---3~~--|
G|-------4---4---3-----4~~--|
D|---4-5-------4-------4~~--|
A|---------------------2~~--|
E|--------------------------|


[Chorus]
e|--3~-3-3-3---2-2~-2-2-2-----------------------|
B|--3~-3-3-3---2-2~-2-2-2--3~-3-3-3--3-3-3-3-3--|
G|--4~-4-4-4-X-3-3~-3-3-3--4~-4-4-4--4-4-4-4-4--|
D|--5~-5-5-5-X-4-4~-4-4-4--4~-4-4-4--4-4-4-4-4--|
A|--5~-5-5-5-X-4-4~-4-4-4--2~-2-2-2--2-2-2-2-2--|
E|--3~-3-3-3-X-2-2~-2-2-2-----------------------|

e|--3~-3-3-3---2-2~-2-2-2-----------------------|
B|--3~-3-3-3---2-2~-2-2-2--3~-3-3-3-------------|
G|--4~-4-4-4-X-3-3~-3-3-3--4~-4-4-4--4-4-4-4-4--|
D|--5~-5-5-5-X-4-4~-4-4-4--4~-4-4-4--4-4-4-4-4--|
A|--5~-5-5-5-X-4-4~-4-4-4--2~-2-2-2--0-0-0-0-0--|
E|--3~-3-3-3-X-2-2~-2-2-2-----------------------|

e|--3~-3-3-3---2-2~-2-2-2-----------------------|
B|--3~-3-3-3---2-2~-2-2-2--3~-3-3-3--3-3-3-3-3--|
G|--4~-4-4-4-X-3-3~-3-3-3--4~-4-4-4--4-4-4-4-4--|
D|--5~-5-5-5-X-4-4~-4-4-4--4~-4-4-4--4-4-4-4-4--|
A|--5~-5-5-5-X-4-4~-4-4-4--2~-2-2-2--2-2-2-2-2--|
E|--3~-3-3-3-X-2-2~-2-2-2-----------------------|

e|--3~-3-3-3---2-2~-2-2-2------|
B|--3~-3-3-3---2-2~-2-2-2--3~--|
G|--4~-4-4-4-X-3-3~-3-3-3--4~--|
D|--5~-5-5-5-X-4-4~-4-4-4--4~--|
A|--5~-5-5-5-X-4-4~-4-4-4--2~--|
E|--3~-3-3-3-X-2-2~-2-2-2------|


[Interlude I]
e|-----------------------------------|
B|-----------------------------------|
G|--2-2-2-2-2-2-2-2-4-4-4-4-4-4-4-4--|
D|--2-2-2-2-2-2-2-2-4-4-4-4-4-4-4-4--|
A|--0-0-0-0-0-0-0-0-2-2-2-2-2-2-2-2--|
E|-----------------------------------|

e|------------------------------|
B|------------------------------|
G|------------------------------|
D|--4-5-7-4--2~--2-4-5-7-4--2~--|
A|--5-5-5-5--5~--5-0-0-0-0--0~--|
E|------------------------------|

e|-----------------------------------|
B|-----------------------------------|
G|--2-2-2-2-2-2-2-2-4-4-4-4-4-4-4-4--|
D|--2-2-2-2-2-2-2-2-4-4-4-4-4-4-4-4--|
A|--0-0-0-0-0-0-0-0-2-2-2-2-2-2-2-2--|
E|-----------------------------------|

e|-----------------------------------|
B|-----------------------------------|
G|-----------------------------------|
D|--4-5-7-4--2-2-2-2-4-5-7-4--2-2-2--|
A|--5-5-5-5--5-5-5-5-0-0-0-0--0-0-0--|
E|-----------------------------------|


[Interlude II] (Chorus played more open)
e|--3~-3-3-3---2-2~-2-2-2-----------------------|
B|--3~-3-3-3---2-2~-2-2-2--3~-3-3-3--3-3-3-3-3--|
G|--4~-4-4-4-X-3-3~-3-3-3--4~-4-4-4--4-4-4-4-4--|
D|--5~-5-5-5-X-4-4~-4-4-4--4~-4-4-4--4-4-4-4-4--|
A|--5~-5-5-5-X-4-4~-4-4-4--2~-2-2-2--2-2-2-2-2--|
E|--3~-3-3-3-X-2-2~-2-2-2-----------------------|

e|--3~-3-3-3---2-2~-2-2-2-----------------------|
B|--3~-3-3-3---2-2~-2-2-2--3~-3-3-3-------------|
G|--4~-4-4-4-X-3-3~-3-3-3--4~-4-4-4--4-4-4-4-4--|
D|--5~-5-5-5-X-4-4~-4-4-4--4~-4-4-4--4-4-4-4-4--|
A|--5~-5-5-5-X-4-4~-4-4-4--2~-2-2-2--0-0-0-0-0--|
E|--3~-3-3-3-X-2-2~-2-2-2-----------------------|

e|--3~-3-3-3---2-2~-2-2-2-----------------------|
B|--3~-3-3-3---2-2~-2-2-2--3~-3-3-3--3-3-3-3-3--|
G|--4~-4-4-4-X-3-3~-3-3-3--4~-4-4-4--4-4-4-4-4--|
D|--5~-5-5-5-X-4-4~-4-4-4--4~-4-4-4--4-4-4-4-4--|
A|--5~-5-5-5-X-4-4~-4-4-4--2~-2-2-2--2-2-2-2-2--|
E|--3~-3-3-3-X-2-2~-2-2-2-----------------------|

e|--3~-3-3-3---2-2--------|
B|--3~-3-3-3---2-2----3~--|
G|--4~-4-4-4-X-3-3----4~--|
D|--5~-5-5-5-X-4-4----4~--|
A|--5~-5-5-5-X-4-4----2~--|
E|--3~-3-3-3-X-2-2--------|


[Final Chorus]
e|--3~-3-3-3---2-2~-2-2-2-----------------------|
B|--3~-3-3-3---2-2~-2-2-2--3~-3-3-3--3-3-3-3-3--|
G|--4~-4-4-4-X-3-3~-3-3-3--4~-4-4-4--4-4-4-4-4--|
D|--5~-5-5-5-X-4-4~-4-4-4--4~-4-4-4--4-4-4-4-4--|
A|--5~-5-5-5-X-4-4~-4-4-4--2~-2-2-2--2-2-2-2-2--|
E|--3~-3-3-3-X-2-2~-2-2-2-----------------------|

e|--3~-3-3-3---2-2~-2-2-2-----------------------|
B|--3~-3-3-3---2-2~-2-2-2--3~-3-3-3-------------|
G|--4~-4-4-4-X-3-3~-3-3-3--4~-4-4-4--4-4-4-4-4--|
D|--5~-5-5-5-X-4-4~-4-4-4--4~-4-4-4--4-4-4-4-4--|
A|--5~-5-5-5-X-4-4~-4-4-4--2~-2-2-2--0-0-0-0-0--|
E|--3~-3-3-3-X-2-2~-2-2-2-----------------------|

e|--3~-3-3-3---2-2~-2-2-2-----------------------|
B|--3~-3-3-3---2-2~-2-2-2--3~-3-3-3--3-3-3-3-3--|
G|--4~-4-4-4-X-3-3~-3-3-3--4~-4-4-4--4-4-4-4-4--|
D|--5~-5-5-5-X-4-4~-4-4-4--4~-4-4-4--4-4-4-4-4--|
A|--5~-5-5-5-X-4-4~-4-4-4--2~-2-2-2--2-2-2-2-2--|
E|--3~-3-3-3-X-2-2~-2-2-2-----------------------|

e|--3-3---2-2-------|
B|--3-3---2-2---3~--|
G|--4-4---3-3---4~--|
D|--5-5---4-4---4~--|
A|--5-5---4-4---2~--|
E|--3-3---2-2-------|


************************************

| h  Hammer-on
| ~  Vibrato 

************************************
Suggest correction
comments
print report bad tab
guest
You may want to rate the tab now too:
select rating
Wanna post a correction for this tab? Suggest correction