Oops, an error
Loading. Please wait.

All The Angels Chords

version 2
version 2

Whole song

187 views 12 this week
no commentswrite comment
1 2 3 4 5
3 more votes to show rating
add to favorites
launch autoscroll
font size
0
reset
transpose
0
reset
display chords
guitar tuner
Autoscroll
slow
fast
+/-
esc
set tempo
stop
Help us to improve Ultimate-Guitar.com Take our survey!
×
Author
Difficulty
intermediate
[Chords]
G     F#     Bm
|-x-| |-x-| |-x-|
|-x-| |-x-| |-3-|
|-4-| |-3-| |-4-|
|-5-| |-4-| |-4-|
|-5-| |-4-| |-2-|
|-3-| |-2-| |-x-|

[Intro]
|-----------------2--2-| 
|-------3-------2----3-|
|-----4---4---3------4-|
|-4-5-------4--------4-|
|--------------------2-|
|--------------------x-|

[Verse 1]
|-----------------2-----------------|   
|-------3-------2--------3---5-3----|   
|-----4---4---3------3-4---4-----4--|   
|-4-5-------4----------------------5|   
|-----------------------------------|   
|-----------------------------------|   

|-----------------2--2-|                
|-------3-------2----3-|                
|-----4---4---3------4-|                
|-4-5-------4--------4-|                
|--------------------2-|                
|--------------------x-|            

|-----------------2-----------------|   
|-------3-------2--------3---5-3----|   
|-----4---4---3------3-4---4-----4--|   
|-4-5-------4----------------------5|   
|-----------------------------------|   
|-----------------------------------|   

|-----------------2--2-|                
|-------3-------2----3-|                
|-----4---4---3------4-|                
|-4-5-------4--------4-|                
|--------------------2-|                
|--------------------x-|       

[Chorus] 
                      G   F#  Bm
And all the angels say ooh...ooh...
G      F#         Bm
You are all to blame
                         G  F#  Bm
'Cause all the angels say ooh...ooh...
G      F#        Bm
You are all to blame

[Verse 2]
|-----------------2-----------------|   
|-------3-------2--------3---5-3----|   
|-----4---4---3------3-4---4-----4--|   
|-4-5-------4----------------------5|   
|-----------------------------------|   
|-----------------------------------|   

|-----------------2--2-|                
|-------3-------2----3-|                
|-----4---4---3------4-|                
|-4-5-------4--------4-|                
|--------------------2-|                
|--------------------x-|   

|-----------------2-----------------|   
|-------3-------2--------3---5-3----|   
|-----4---4---3------3-4---4-----4--|   
|-4-5-------4----------------------5|   
|-----------------------------------|   
|-----------------------------------|   

|-----------------2--2-|                
|-------3-------2----3-|                
|-----4---4---3------4-|                
|-4-5-------4--------4-|                
|--------------------2-|                
|--------------------x-|   

[Chorus]
                        G   F#   Bm
'Cause all the angels say ooh... ooh...
G      F#        Bm
You are all to blame
                        G   F#  Bm
'Cause all the angels say ooh...ooh...
G      F#         Bm
You are all the same

[Bridge 1]
|-x----x-------------------------------------|
|-x----x-------------------------------------|
|-x-x8-x----6-7-9-7--6---44--6-7-9-7--6---66-|
|-7----9-x8-x-x-x-x--x---xx--x-x-x-x--x---xx-|
|-7----9----4-5-7-5--4---22--4-5-7-7--4---44-|
|-5----7-------------------------------------|

|-x----x-------------------------------------|
|-x----x-------------------------------------|
|-x-x8-x----6-7-9-7--6---44--6-7-9-7--6---xx-|
|-7----9-x8-x-x-x-x--x---xx--x-x-x-x--x---xx-|
|-7----9----4-5-7-5--4---22--4-5-7-7--4---xx-|
|-5----7-------------------------------------|

[Bridge 2]
                         G
And if you open up your heart
     F#     Bm
And stay so far away
    G     F#        Bm
But you are all the same
                        G       F#
And if you maybe find a better way
    Bm
To love me then
G      F#      Bm
You are all to blame

[Chorus]
                      G   F#  Bm
And all the angels say ooh...ooh...
G      F#         Bm
You are all to blame
                         G  F#  Bm
'Cause all the angels say ooh...ooh...
G      F#        Bm
You are all to blame

************************************

| /   slide up
| \   slide down
| h   hammer-on
| p   pull-off
| ~   vibrato
| +   harmonic
| x   Mute note
| b   Bend
| pb  Pre-bend
| br  Bend release
| pbr Pre-bend release
| brb Bend release bend

************************************
Suggest correction
Give kudos to tab author, rate the tab!
1 2 3 4 5
comments
print report bad tab
guest
You may want to rate the tab now too:
select rating
Wanna post a correction for this tab? Suggest correction