Oops, an error
Loading. Please wait.

All The Angels Tab

version 2
version 2

Whole song

1,033 views 114 this week
no commentswrite comment
1 2 3 4 5
2 more votes to show rating
add to favorites
launch autoscroll
font size
0
reset
how to read this tab
guitar tuner
Autoscroll
slow
fast
+/-
esc
set tempo
stop
Help us to improve Ultimate-Guitar.com Take our survey!
×
Author
[Intro]

e------------------2-2-|
B----------------2---3-|
G------4-7-4---3-----4-|
D--4-5-------4-------4-|
A----------------------|
E----------------------|



[Verse]

e------------------2-|--------------------|
B----------------2---|------2---5p3-------|
G------4-7-4---3-----|--3h4---4-----------|
D--4-5-------4-------|--------------4----4|
A--------------------|--------------------|
E--------------------|--------------------|

e---------------2-2-|
B-------------2---3-|
G---4-7-4---3-----4-|
D-5-------4-------4-|
A-------------------|
E-------------------|




[Chorus]

e-----------------|--2-2-22-22-2-|
B-----------------|--3-3-33-33-3-|
G--4-4-44-33-3-33-|--4-4-44-44-4-|
D--5-5-55-44-4-44-|--4-4-44-44-4-|
A--5-5-55-44-4-44-|--2-2-22-22-2-|
E--3-3-33-22-2-22-|--------------|
"And all the angels say oooooo..."

e-----------------|--2-2-22-22-2-|
B-----------------|--3-3-33-33-3-|
G--4-4-44-33-3-33-|--4-4-44-44-4-|
D--5-5-55-44-4-44-|--4-4-44-44-4-|
A--5-5-55-44-4-44-|--2-2-22-00-0-|
E--3-3-33-22-2-22-|--------------|
"You are all to blame"

e-----------------|--2-2-22-22-2-|
B-----------------|--3-3-33-33-3-|
G--4-4-44-33-3-33-|--4-4-44-44-4-|
D--5-5-55-44-4-44-|--4-4-44-44-4-|
A--5-5-55-44-4-44-|--2-2-22-22-2-|
E--3-3-33-22-2-22-|--------------|
"And all the angels say oooooo..."


e-----------------|--2-----------|
B-----------------|--3-----------|
G--4-4-44-33-3-33-|--4-----------|
D--5-5-55-44-4-44-|--4-----------|
A--5-5-55-44-4-44-|--2-----------|
E--3-3-33-22-2-22-|--------------|
"You are all to blame"

[Verse]


[Chorus]


[Bridge]

e--2-2-22-|---------2-----|-------------------|---------2-----|-------------------|
B--3-3-33-|---------3-----|-------------------|---------3-----|-------------------|
G--4-4-44-|--6------4-----|--11-12-14-11-9-99-|--9------4-----|--11-12-14-11-9-99-|
D--4-4-44-|--7------4-----|--x--x--x--x--x-xx-|--9------4-----|--x--x--x--x--x-xx-|
A--2-2-22-|--7------2(x8)-|--9--10-12-9--7-77-|--7(8x)--2(8x)-|--9--10-12-9--7-77-|
E---------|--5(x8)--------|-------------------|---------------|-------------------|

[Chorus]


[Break]

e--------x--2----|
B--------x--3----|
G--4-4-33x--4----|
D--5-5-44x--4----|
A--5-5-44x--2----|
E--3-3-22x-------|

[Chorus]

[Break]



Suggest correction
Give kudos to tab author, rate the tab!
1 2 3 4 5
comments
print report bad tab
guest
You may want to rate the tab now too:
select rating
Wanna post a correction for this tab? Suggest correction