Oops, an error
Loading. Please wait.

All The Angels Tab

version 3
version 3

Whole song

148 views 3 this week
no commentswrite comment
1 2 3 4 5
2 more votes to show rating
add to favorites
launch autoscroll
font size
0
reset
how to read this tab
guitar tuner
Autoscroll
slow
fast
+/-
esc
set tempo
stop
Help us to improve Ultimate-Guitar.com Take our survey!
×
Author
Difficulty
novice
[Intro]

e|---|----------------------2-|-2--|
B|---|-------3-----------2----|-3--|
G|---|----4-----4-----3-------|-4--|
D|-4-|-5-----------4----------|-4--|
A|---|------------------------|-2--|
E|---|------------------------|----|


[Verse]

e|---|----------------------2-|------------------------|----------------------2-|-2----------------------|
B|---|-------3-----------2----|-----3---5-3------------|-------3-----------2----|-3----------------------|
G|---|----4-----4-----3-------|-3h4---4----------------|----4-----4-----3-------|-4----------------------|
D|-4-|-5-----------4----------|-------------5-------4--|-5-----------4----------|-4----------------------| x2
A|---|------------------------|------------------------|------------------------|-2----------------------|
E|---|------------------------|------------------------|------------------------|------------------------|


[Chorus]

e|---|-3---3--3-3--2-2-2-2-0--|-2---2--2-2--2-2-2-2-2--|-3---3--3-3--2-2-2-2-0--|-2---2---2--2-2-2-2-2-0-|
B|---|-3---3--3-3--2-2-2-2-0--|-3---3--3-3--3-3-3-3-3--|-3---3--3-3--2-2-2-2-0--|-3---3---3--3-3-3-3-3-0-|
G|---|-4---4--4-4--3-3-3-3-0--|-4---4--4-4--4-4-4-4-4--|-4---4--4-4--3-3-3-3-0--|-4---4---4--4-4-4-4-4-0-|
D|---|-5---5--5-5--4-4-4-4-0--|-4---4--4-4--4-4-4-4-4--|-5---5--5-5--4-4-4-4-0--|-4---4---4--4-4-4-4-4-0-|
A|---|-5---5--5-5--4-4-4-4-0--|-2---2--2-2--2-2-2-2-2--|-5---5--5-5--4-4-4-4-0--|-2---2---2--2-0-0-0-0-0-|
E|---|-3---3--3-3--2-2-2-2-0--|------------------------|-3---3--3-3--2-2-2-2-0--|----------------------0-|

e|---|-3---3--3-3--2-2-2-2-0--|-2---2--2-2--2-2-2-2-2--|-3---3--3-3--2-2-2-2-0--|-2----------------------|
B|---|-3---3--3-3--2-2-2-2-0--|-3---3--3-3--3-3-3-3-3--|-3---3--3-3--2-2-2-2-0--|-3----------------------|
G|---|-4---4--4-4--3-3-3-3-0--|-4---4--4-4--4-4-4-4-4--|-4---4--4-4--3-3-3-3-0--|-4----------------------|
D|---|-5---5--5-5--4-4-4-4-0--|-4---4--4-4--4-4-4-4-4--|-5---5--5-5--4-4-4-4-0--|-4----------------------|
A|---|-5---5--5-5--4-4-4-4-0--|-2---2--2-2--2-2-2-2-2--|-5---5--5-5--4-4-4-4-0--|-2----------------------|
E|---|-3---3--3-3--2-2-2-2-0--|------------------------|-3---3--3-4--3-3-3-3-0--|------------------------|


[Verse]

e|---|----------------------2-|------------------------|----------------------2-|-2--|
B|---|-------3-----------2----|-----3---5-3------------|-------3-----------2----|-3--|
G|---|----4-----4-----3-------|-3h4---4----------------|----4-----4-----3-------|-4--|
D|-4-|-5-----------4----------|-------------5-------4--|-5-----------4----------|-4--| x2
A|---|------------------------|------------------------|------------------------|-2--|
E|---|------------------------|------------------------|------------------------|----|


[Chorus]

e|---|-3---3--3-3--2-2-2-2-0--|-2---2--2-2--2-2-2-2-2--|-3---3--3-3--2-2-2-2-0--|--2-----2---2-2-2-2-2-2-|
B|---|-3---3--3-3--2-2-2-2-0--|-3---3--3-3--3-3-3-3-3--|-3---3--3-3--2-2-2-2-0--|--3-----3---3-3-3-3-3-3-|
G|---|-4---4--4-4--3-3-3-3-0--|-4---4--4-4--4-4-4-4-4--|-4---4--4-4--3-3-3-3-0--|--4-----4---4-4-4-4-4-4-|
D|---|-5---5--5-5--4-4-4-4-0--|-4---4--4-4--4-4-4-4-4--|-5---5--5-5--4-4-4-4-0--|--4-----4---4-4-4-4-4-4-|
A|---|-5---5--5-5--4-4-4-4-0--|-2---2--2-2--2-2-2-2-2--|-5---5--5-5--4-4-4-4-0--|--2-----2---2-2-0-0-0-0-|
E|---|-3---3--3-3--2-2-2-2-0--|------------------------|-3---3--3-3--2-2-2-2-0--|------------------------|

e|---|-3---3--3-3--2-2-2-2-0--|-2---2--2-2--2-2-2-2-2--|-3---3--3-3--2-2-2-2-0--|-2---------------2--2-0-|
B|---|-3---3--3-3--2-2-2-2-0--|-3---3--3-3--3-3-3-3-3--|-3---3--3-3--2-2-2-2-0--|-3---------------3--3-0-|
G|---|-4---4--4-4--3-3-3-3-0--|-4---4--4-4--4-4-4-4-4--|-4---4--4-4--3-3-3-3-0--|-4---------------4--4-0-|
D|---|-5---5--5-5--4-4-4-4-0--|-4---4--4-4--4-4-4-4-4--|-5---5--5-5--4-4-4-4-0--|-4---------------4--4-0-|
A|---|-5---5--5-5--4-4-4-4-0--|-2---2--2-2--2-2-2-2-2--|-5---5--5-5--4-4-4-4-0--|-2---------------2--2-0-|
E|---|-3---3--3-3--2-2-2-2-0--|------------------------|-3---3--3-4--3-3-3-3-0--|----------------------0-|


[Bridge]

e|---|------------------------|------------------------|------------------------|------------------------|
B|---|------------------------|------------------------|------------------------|------------------------|
G|---|------------------------|------------------------|------------------------|------------------------|
D|---|------------------------|------------------------|------------------------|-4-5-7-4----------------|
A|---|7--7--7--7--7--7--7--7-0|9--9--9--9--9--9--9--9-0|-9-10-12-9----7-----7-0-|-------------7------7-0-|
E|---|5--5--5--5--5--5--5--5-0|7--7--7--7--7--7--7--7-0|-7-7--7--7----7-----7-0-|-5-5-5-5-----5------5-0-|

e|---|------------------------|------------------------|------------------------|------------------------|
B|---|------------------------|------------------------|------------------------|------------------------|
G|---|------------------------|------------------------|------------------------|------------------------|
D|---|------------------------|------------------------|------------------------|-4-5-7-4----------------|
A|---|7--7--7--7--7--7--7--7-0|9--9--9--9--9--9--9--9-0|-9-10-12-9------7-7-7-0-|----------------7-7-7-0-|
E|---|5--5--5--5--5--5--5--5-0|7--7--7--7--7--7--7--7-0|-7-7--7--7------7-7-7-0-|-5-5-5-5--------5-5-5-0-|


[Chorus]

e|---|-3---3--3-3--2-2-2-2-0--|-2---2--2-2--2-2-2-2-2--|-3---3--3-3--2-2-2-2-0--|-2-----2---2-2-2-2-2-2--|
B|---|-3---3--3-3--2-2-2-2-0--|-3---3--3-3--3-3-3-3-3--|-3---3--3-3--2-2-2-2-0--|-3-----3---3-3-3-3-3-3--|
G|---|-4---4--4-4--3-3-3-3-0--|-4---4--4-4--4-4-4-4-4--|-4---4--4-4--3-3-3-3-0--|-4-----4---4-4-4-4-4-4--|
D|---|-5---5--5-5--4-4-4-4-0--|-4---4--4-4--4-4-4-4-4--|-5---5--5-5--4-4-4-4-0--|-4-----4---4-4-4-4-4-4--|
A|---|-5---5--5-5--4-4-4-4-0--|-2---2--2-2--2-2-2-2-2--|-5---5--5-5--4-4-4-4-0--|-2-----2---2-2-0-0-0-0--|
E|---|-3---3--3-3--2-2-2-2-0--|------------------------|-3---3--3-3--2-2-2-2-0--|------------------------|

e|---|-3---3--3-3--2-2-2-2-0--|-2---2--2-2--2-2-2-2-2--|-3---3--3-3--2-2-2-2-0--|-2-------------2--2--0--|
B|---|-3---3--3-3--2-2-2-2-0--|-3---3--3-3--3-3-3-3-3--|-3---3--3-3--2-2-2-2-0--|-3-------------3--3--0--|
G|---|-4---4--4-4--3-3-3-3-0--|-4---4--4-4--4-4-4-4-4--|-4---4--4-4--3-3-3-3-0--|-4-------------4--4--0--|
D|---|-5---5--5-5--4-4-4-4-0--|-4---4--4-4--4-4-4-4-4--|-5---5--5-5--4-4-4-4-0--|-4-------------4--4--0--|
A|---|-5---5--5-5--4-4-4-4-0--|-2---2--2-2--2-2-2-2-2--|-5---5--5-5--4-4-4-4-0--|-2-------------2--2--0--|
E|---|-3---3--3-3--2-2-2-2-0--|------------------------|-3---3--3-4--3-3-3-3-0--|---------------------0--|


e|---|-3---3--3-3--2-2-2-2-0--|-2---2--2-2--2-2-2-2-2--|-3---3--3-3--2-2-2-2-0--|-2-----2---2-0-2-2--2-2-|
B|---|-3---3--3-3--2-2-2-2-0--|-3---3--3-3--3-3-3-3-3--|-3---3--3-3--2-2-2-2-0--|-3-----3---3-0-3-3--3-3-|
G|---|-4---4--4-4--3-3-3-3-0--|-4---4--4-4--4-4-4-4-4--|-4---4--4-4--3-3-3-3-0--|-4-----4---4-0-4-4--4-4-|
D|---|-5---5--5-5--4-4-4-4-0--|-4---4--4-4--4-4-4-4-4--|-5---5--5-5--4-4-4-4-0--|-4-----4---4-0-4-4--4-4-|
A|---|-5---5--5-5--4-4-4-4-0--|-2---2--2-2--2-2-2-2-2--|-5---5--5-5--4-4-4-4-0--|-2-----2---2-2-0-0--0-0-|
E|---|-3---3--3-3--2-2-2-2-0--|------------------------|-3---3--3-3--2-2-2-2-0--|------------------------|


[Outro]


e|---|-3---3--3-3--2-2-2-2-0--|-2---2--2-2--2-2-2-2-2--|-3---3---------2---2----|-2----------------------|
B|---|-3---3--3-3--2-2-2-2-0--|-3---3--3-3--3-3-3-3-3--|-3---3---------2---2----|-3----------------------|
G|---|-4---4--4-4--3-3-3-3-0--|-4---4--4-4--4-4-4-4-4--|-4---4---------3---3----|-4----------------------|
D|---|-5---5--5-5--4-4-4-4-0--|-4---4--4-4--4-4-4-4-4--|-5---5---------4---4----|-4----------------------|
A|---|-5---5--5-5--4-4-4-4-0--|-2---2--2-2--2-2-2-2-2--|-5---5---------4---4----|-2----------------------|
E|---|-3---3--3-3--2-2-2-2-0--|------------------------|-3---3---------3---3----|------------------------|


************************************

| h   Hammer-on

************************************
Suggest correction
Give kudos to tab author, rate the tab!
1 2 3 4 5
comments
print report bad tab
guest
You may want to rate the tab now too:
select rating
Wanna post a correction for this tab? Suggest correction