Oops, an error
Loading. Please wait.

Astro Zombies Tab

version 1
version 1

Intro

Whole song

Interactive

1,615 views 1 this week
1 commentread comment
1 2 3 4 5
x 3
add to favorites
launch autoscroll
font size
0
reset
how to read this tab
guitar tuner
×
Best way to learn
"Astro Zombies"
Autoscroll
slow
fast
+/-
esc
set tempo
stop
Author
e|-----------------------------------------------------------------------|
B|-----------------------------------------------------------------------|
G|555-4-222--------------------------------------------------------------|
D|555-4-222-5-33333333-55555555------------------------------------------|
A|333-2-000-5-33333333-55555555------------------------------------------|
E|----------3-11111111-33333333------------------------------------------|

A C Major scale can be played over this.
thats how i figured it out.

like this.

e|--------------------------------------0-1-3----------------------------|
B|--------------------------------0-1-3----------------------------------|
G|----------------------------0-2----------------------------------------|
D|----------------------0-2-3--------------------------------------------|
A|3-2-0-----------0-2-3--------------------------------------------------|
E|------3-1-0-1-3--------------------------------------------------------|
Suggest correction
Give kudos to tab author, rate the tab!
1 2 3 4 5
comments
print report bad tab
1 comment total.
0 reply
mcr_02_fan 37 Oct 24, 2005 01:38 PM

its kind of good ill give it **** just because im nice

guest
You may want to rate the tab now too:
select rating
Wanna post a correction for this tab? Suggest correction