Oops, an error
Loading. Please wait.

Astro Zombies Tab

version 1
version 1

Whole song

Interactive

6,999 views 3 this week
21 commentsread comments
1 2 3 4 5
accurate
x 17
add to favorites
launch autoscroll
font size
0
reset
how to read this tab
guitar tuner
Tab Pro tools
  • play this tab
  • loop segment
  • change instrument
  • show fretboard
  • metronome
×
Best way to learn
"Astro Zombies"
Autoscroll
slow
fast
+/-
esc
set tempo
stop
Contributor
----------------------------------------------------------------------------
                             Astro Zombies - My Chemical Romance
----------------------------------------------------------------------------
Tabbed by: kiefermatot

Email: bamcky2k_69@hotmail.com

Tuning: Standard


Riff A
E|---------------------------------------------|
B|---------------------------------------------|
G|---------------------------------------------|
D|-10-10/9-9-99--7--5-55--3-33-33--5--55-55----|
A|-10-10/9-9-99--7--5-55--3-33-33--5--55-55----|
E|- 8- 8/7-7-77--5--3-33--1-11-11--3--33-33----|


Riff B
E|---------------------------------------|
B|---------------------------------------|
G|-------------------10101010------------|
D|-1010101010101010--10101010--3----5--6-|
A|-1010101010101010---8-8-8-8--3----5--6-|
E|--8-8-8-8-8-8-8-8------------1----3--4-|

Riff C
E|---------------------------------------------------------|
B|---------------------------------------------------------|
G|---------------------------77777777-10101010-12121212----|
D|-1010101010101010-77777777-77777777-10101010-12121212----|
A|-1010101010101010-77777777-55555555--8-8-8-8-10101010----|
E|--8-8-8-8-8-8-8-8-55555555-------------------------------|


Riff D
E|---------------------------------------------|
B|---------------------------------------------|
G|---------------------------77777777----------|
D|-1010101010101010-77777777-77777777-55555555-|
A|-1010101010101010-77777777-55555555-55555555-|
E|--8-8-8-8-8-8-8-8-55555555----------33333333-|


Solo:  - Thanks to aperfectshot176.
e|---------------------------------------------------------|
B|-^13^13-13-13-^13^13-12-9--------------------------------|
G|--------------------------12-10--10-10-10-10-12-12-12-12-|
D|---------------------------------------------------------|
A|---------------------------------------------------------|
E|---------------------------------------------------------|

e|-------------------------------------------------------------|
B|-^13^13-13-13-^13^13-12-9---------------------------------13-|
G|--------------------------12-10--10-10-10-10-12-12-12-12-----|
D|-------------------------------------------------------------|
A|-------------------------------------------------------------|
E|-------------------------------------------------------------|


Order:
Riff A     2x
Riff B     2x
Riff C     2x
Riff D     2x
Riff B     2x
Riff C     2x
Riff D     2x
Riff B     4x
Riff A     2x

| /  slide up
| \  slide down
| h  hammer-on
| p  pull-off
| ~  vibrato
| +  harmonic
| x  Mute note
============================================================================
comments
print report bad tab
21 comments total. Showing first comments.
0 reply
MCRrocks wrote on October 24 2005, 12:50 pm

what about the solo in the end..?

0 reply
BleedingAlarm wrote on January 2 2006, 07:37 pm

Nice job.

0 reply
ilovegerardway wrote on January 3 2006, 06:31 pm

i'm gonna go check the misfits version.

I want to post or [tab]
guest
You may want to rate the tab now too:
select rating
Please do not post tabs as comments. Select "correction" instead!