Oops, an error
Loading. Please wait.

Blood Tab

version 1
version 1

Whole song

Interactive

29,445 views 60 this week
18 commentsread comments
1 2 3 4 5
excellent!
x 17
add to favorites
launch autoscroll
font size
0
reset
how to read this tab
guitar tuner
Autoscroll
slow
fast
+/-
esc
set tempo
stop
Help us to improve Ultimate-Guitar.com Take our survey!
×
Author
Difficulty
novice
Song: Blood
Artist: My Chemical Romance
Album: The Black Parade
Track #: 14

This is the bonus track on The Black Parade.
It's all played on a keyboard but this is it transcripted for guitar.

Standard Tuning

Intro
 Guitar 1
|-----------------|
|-----------------|
|-----------------|
|-9-9-9-9-9-9-9-9-|
|-7-7-7-7-7-7-7-7-|
|-----------------|
|
|Guitar 2
|-----------------|
|-----------------|
|-----------------|
|-----------------|
|---------2-4-6-7-|
|-----------------|
         Well they en-
Verse 1
 Both Guitars
|-----------------------------------|
|-----------------------------------|
|-9-9-9-9-11-11-11-11---------9---9-|
|-9-9-9-9-11-11-11-11-9-9-9-9-9-9-9-|
|-7-7-7-7-9--9--9--9--9-9-9-9-7-9-7-|
|---------9--9--9--9--7-7-7-7---7---|
-courage your complete co-operation.
Send ya roses when they think ya need to smile.

|------------------------------------|
|------------------------------------|
|-6-6-6-6-11-11-11-11----------------|
|-6-6-6-6-11-11-11-11-9-9-9-9-9----9-|
|-4-4-4-4-9--9--9--9--9-9-9-9-9----9-|
|---------9--9--9--9--7-7-7-7-7----7-|
I can't control myself because I don't know how
and they love me for it, honestly, I've been here for a while.
So Give them...

Chorus
|-------------------------------------|
|-------------------------------------|
|-------------------------------------|
|-9-9-9-9-11-11-11-11---------4-6-8---|
|-9-9-9-9-11-11-11-11-9-9-9-9-4-6-8---|
|-7-7-7-7-9--9--9--9--9-9-9-9-2-4-6---|
|---------------------7-7-7-7---------|
Blood, blood, gallons of the stuff.
Give them all they can drink and it'll never be enough
so give them...

|------------------------------------------|
|-----9-9-10101010101010101010~------------|
|-9-9-8-8-9-9-9-9-9-9-9-9-9-9~-------9-----|
|-9-9-6-6-7-7-7-7-7-7-7-7-7-7~---9---9-9---|
|-7-7----------------------------9---7-9---|
|--------------------------------7-----7-0-|
Blood, blood, Blood!
Grab a glass cause there's gonna be a flood.

Verse 2
|-----------------------------------|
|-----------------------------------|
|-9-9-9-9-11-11-11-11---------9---9-|
|-9-9-9-9-11-11-11-11-9-9-9-9-9-9-9-|
|-7-7-7-7-9--9--9--9--9-9-9-9-7-9-7-|
|---------9--9--9--9--7-7-7-7---7---|
A celebrated man amongst the gurney.
They can fix me with a proper bit of luck.

|------------------------7~------------|
|------------------------7~------------|
|-6-6-6-6-11-11-11-11----8~------------|
|-6-6-6-6-11-11-11-11-9~---------------|
|-4-4-4-4-9--9--9--9--9~---------------|
|---------9--9--9--9--7~----0-0-0-0-0-0|
The doctors and the nurses they adore me so but it's
really quite alarming, cause I'm such an awful fuck! (why thank you)
I gave you...

Chorus
|-------------------------------------|
|-------------------------------------|
|-------------------------------------|
|-9-9-9-9-11-11-11-11---------4-6-8-9-|
|-9-9-9-9-11-11-11-11-9-9-9-9-4-6-8-9-|
|-7-7-7-7-9--9--9--9--9-9-9-9-2-4-6-7-|
|---------------------7-7-7-7---------|
Blood, blood, gallons of the stuff.
Gave you all that you can drink and it has never been enough
I gave ya...

|------------------------------------------------|
|-----9-9-10101010101010101010~------------------|
|-9-9-8-8-9-9-9-9-9-9-9-9-9-9~-----------9-------|
|-9-9-6-6-7-7-7-7-7-7-7-7-7-7~---9-9-9-9-9-9-2---|
|-7-7----------------------------9-9-9-9-7-9-2---|
|--------------------------------7-7-7-7---7-0---|
Blood, blood, Blood!
I'm the kind of human reckuss that you love.

Mandolin part: Coming soon!


Suggest correction
comments
print report bad tab
18 comments total. Showing first comments. show 1 bad comment
0 reply
f1f2 774 wrote on November 15 2006, 04:16 am

someone finally tabbed this! you missed some parts, but some chords doesn't sound good :( 4 stars

+1 reply
private 101 wrote on November 23 2006, 06:48 pm

itunes calls it blood

guest
You may want to rate the tab now too:
select rating
Please do not post tabs as comments. Select "correction" instead!