Oops, an error
Loading. Please wait.

Boy Division Bass Tab

version 1
version 1

Whole song

Interactive

7,907 views 15 this week
no commentswrite comment
1 2 3 4 5
excellent!
x 13
add to favorites
launch autoscroll
font size
0
reset
guitar tuner
Tab Pro tools
  • play this tab
  • loop segment
  • change instrument
  • show fretboard
  • metronome
×
Best way to learn
"Boy Division"
Autoscroll
slow
fast
+/-
esc
set tempo
stop
Contributor
Boy Division bass tab

Intro
G|-------------------------------------|
D|-------------------------------------|
A|-66666666-22222222-------------------|
E|-------------------22222222-66666666-|  x2

G|--------------------------------------|
D|--------------------------------------|
A|-666666666----------------------------|
E|-----------77777777-6666666666666666~-| x2

Pre-Chorus
G|----------------------------------------------------------------------|
D|----------------------------------------------------------------------|
A|-------------------------------------2222222222222222-44444444-555555-|
E|-7777777777777777-2-22-2-22-2-22-222----------------------------------|

Chorus
G|--------------------------------------------------------------|
D|--------------------------------------------------------------|
A|------------------1---------6666666666666666-2222222222222222-|
E|-2222222222222222---1-1-121-----------------------------------|

G|----------------------------------------------------------------------|
D|----------------------------------------------------------------------|
A|------------------1111111111111111-2222222222222222-44444444-55555555-|
E|-2222222222222222-----------------------------------------------------|

Bridge
G|---------------------------------------------------------------|
D|---------------------------------------------------------------|
A|-6~-6~-6-6-66-2-2-22---------------6-6-66-2-2-22---------------|
E|---------------------2-2-22-6-6-66---------------2-2-22-6-6-66-| 

G|--------------------------------------|
D|--------------------------------------|
A|-666666666----------------------------|
E|-----------77777777-6666666666666666~-| x2

Pre-Chorus
G|----------------------------------------------------------------------|
D|----------------------------------------------------------------------|
A|-------------------------------------2222222222222222-44444444-555555-|
E|-7777777777777777-2-22-2-22-2-22-222----------------------------------|

Chorus
G|--------------------------------------------------------------|
D|----------------------------1111111111111111------------------|
A|------------------1--------------------------2222222222222222-|
E|-2222222222222222---1-1-121-----------------------------------|

G|----------------------------------------------------------------------|
D|----------------------------------------------------------------------|
A|------------------1111111111111111-2222222222222222-44444444-55555555-|
E|-2222222222222222-----------------------------------------------------|

Breakdown
G|--------------------------------------------------------|
D|--------------------------------------------------------|
A|-6~-6~-6~--6-6667-6-6667-6-6667--X-9-8-7~-6-6667-6-6667-|
E|--------------------------------------------------------|

G|------------------|       G|--------------|
D|------------------|       D|--------------|
A|-6666666666666666-|       A|-666666666666-|
E|------------------| x3    E|--------------|

Last Chorus & Outro
G|---------------------------------------------------------------------|
D|---------------------------------------------------------------------|
A|-6666666666666666-888888888888888-2222222222222222-44444444-55555555-|
E|---------------------------------------------------------------------|

G|--------------------------------33333-2-1----------------------------|
D|-------------44444---------------------------------------------------|
A|-------------------111111111111-----------22222222-44444444-55555555-|
E|-22222222222---------------------------------------------------------|

G|---------------------------------------|
D|---------------------------------------|
A|-6~-6~-6666666666666666-6666-6666-6666-|
E|---------------------------------------|
comments
print report bad tab
I want to post or [tab]
guest
You may want to rate the tab now too:
select rating
Please do not post tabs as comments. Select "correction" instead!