Oops, an error
Loading. Please wait.

Bulletproof Heart Bass

version 1
version 1

Whole song

Interactive

31,445 views 75 this week
3 commentsread comments
1 2 3 4 5
x 38
add to favorites
launch autoscroll
font size
0
reset
guitar tuner
backing track
0:00
0:00
×
Best way to learn
"Bulletproof Heart"
Autoscroll
slow
fast
+/-
esc
set tempo
stop
[Intro]
(00:37)
G|------------------------------------------------------------------|
D|------------------------------------------------------------------|
A|-------4-2222244------4-2222244-66666-4-2222244-------------------|
E|-22222-----------22222--------------------------22222-1-2---------|

[Verse 1] (x2) 
(00:48)
G|--------------------------------------------------------------------------|
D|--------------------------------------------------------------------------|
A|----------2222-4444----------2222-4444-66666666-2222-4444-----------------|
E|-22222222-----------22222222------------------------------222222-1-2------|

(2nd Ending That Leads To Pre-Chorus)
G|-------------|
D|-------------|
A|-------------|
E|-2222-1111---|

[Pre-Chorus] 
(1:17)
G|----------------------------------------------------------------------|
D|----------------------------------------------------------------------|
A|-666666666666-8888-------------------666666666666-8888----------------|
E|-------------------777777777777-6666-------------------77777777-99999-|

[Chorus] 
(1:31)
G|-------------------------------------------------------------------------|
D|-------------------------------------------------------------------------|
A|-999999999999-8888-666666666666--------------------------------55555555--|
E|--------------------------------6666-7777777777777777-99999999-----------|

G|-------------------------------------------------------------------------|
D|-------------------------------------------------------------------------|
A|-666666666666-8888-9999999999999999------------------55555555-777/-------|
E|------------------------------------7777777777777777---------------0-0---|

[Guitar Solo] 
(1:58)
G|------------------------------------------------------------------|
D|------------------------------------------------------------------|
A|-------4-2222244------4-2222244-66666-4-2222244-------------------|
E|-22222-----------22222--------------------------22222-1-2---------|

[Verse 2] (x2) 
(2:10)
G|--------------------------------------------------------------------------|
D|--------------------------------------------------------------------------|
A|----------2222-4444----------2222-4444-66666666-2222-4444-----------------|
E|-22222222-----------22222222------------------------------222222-1-2------|

(2nd Ending That Leads To Pre-Chorus)
G|-------------|
D|-------------|
A|-------------|
E|-2222-1111---|

[Pre-Chorus] 
(2:39)
G|-------------------------------------------------------------------------|
D|-------------------------------------------------------------------------|
A|-666666666666-8888-------------------------------------------------------|
E|-------------------777777777777-6666-4444444444-66666666-77777777-99999--|

[Chorus] 
(2:53)
G|-------------------------------------------------------------------------|
D|-------------------------------------------------------------------------|
A|-999999999999-8888-666666666666--------------------------------55555555--|
E|--------------------------------6666-7777777777777777-99999999-----------|

G|--------------------------------------------------------------------------|
D|--------------------------------------------------------------------------|
A|-666666666666-8888-9999999999999999------------------55555555-77777777-9~-|
E|------------------------------------7777777777777777----------------------|

[Bridge] 
(3:31)
G|---11-------7-------11-------7----------------9--------------------|
D|--------------------------------------7----------------------------|
A|-9------9/5-----5/9------9/5--------------0/7-----7/5~---7~--------|
E|---------------------------------10/5------------------------------|

G|------------------------------------------------------------------|
D|------------------------------------------------------------------|
A|-99999999-55555555-99999999-5555---------------77777777-----------|
E|---------------------------------6666-55555555--------------------|

(Those Are Elevens, Not Ones)
G|-------------------------------|
D|-------------------------------|
A|-99999999-1111111111111111-----|
E|-------------------------------|

G|------------------------------------|
D|------------------------------------|
A|-1212121212121212-1414141414141414--|
E|------------------------------------|

G|------------------------------------|
D|------------------------------------|
A|-1717171717171717-1919191919191919--|
E|------------------------------------|

[Chorus] 
(4:05)
G|-----------------------------------------------------------------|
D|-----------------------------------------------------------------|
A|---999999-8888---666666-----------------------44444444-55555555--|
E|------------------------6666-7777777777777777--------------------|

G|--------------------------------------------------------------------------|
D|--------------------------------------------------------------------------|
A|-666666666666-4444----------------------------------------------444-4-4---|
E|-------------------777777777777-9999-44444444-66666666-77777777----4------|

[Outro] 
(4:31)
G|------------------------------------------------------------------|
D|------------------------------------------------------------------|
A|-------4-2222244------4-2222244-66666-4-2222244-------------------|
E|-22222-----------22222--------------------------2~~~~~~~~~~~~~----|


************************************

| /  Slide up
| ~  Vibrato

************************************
Suggest correction
comments
print report bad tab
3 comments total.
0 reply
derekross11 10 Apr 30, 2011 01:51 PM

It's right, just move everything up one fret, when you play this tab along with the song it sounds off, but if you do everything here up one fret it's accurate.

+3 reply
Chrisistheazn 858 Jul 15, 2011 07:57 AM

Whoever said move this up one fret is wrong, they must have downloaded a recording transposed up half a step. The tab is pretty accurate I guess, but the songs is played in dropped tuning so you can hit the low E flat in the chorus

0 reply
Axle Sterling 147 Aug 02, 2011 01:33 PM

haha, you are correct. I did not realize it needed drop tuning until very recently. ^.^

guest
You may want to rate the tab now too:
select rating
Wanna post a correction for this tab? Suggest correction