Oops, an error
Loading. Please wait.

Bulletproof Heart Tab

version 1
version 1

Solo

Whole song

Interactive

6,907 views 12 this week
no commentswrite comment
1 2 3 4 5
accurate
x 4
add to favorites
launch autoscroll
font size
0
reset
how to read this tab
guitar tuner
Autoscroll
slow
fast
+/-
esc
set tempo
stop
Help us to improve Ultimate-Guitar.com Take our survey!
×
Difficulty
intermediate
This is pretty much accurate.
Any doubt carl-ram@hotmail.com
      S   S   S  S  S   S  S  S   S  S S   S
E||------------------------------------------|
B||------------------------------------------|
G||-------------15--------13--------11-------|
D||------------------------------------------|
A||--13h-14h-16----13h-14----11h-13----9h-11-|
E||------------------------------------------|


   S Q     E   E  S  S  S  S E  S
----------------------------------|
----------------------------------|
---L------------------------------|
-----9b----9b--9--8h-9p-8----8----|
--------------------------11----9-|
----------------------------------|


  Q     E    E    E   S   S   S  S  E
-------16b--16b--16--14h-16p-14----14--|
--------------------------------18-----|
---------------------------------------|
---------------------------------------|
--L------------------------------------|
---------------------------------------|


   Q     E    E    E   S   S   Q
--------19b--19b--19--18h-19p-18~----|
--14---------------------------------|
-------------------------------------|
-------------------------------------|
-------------------------------------|
-------------------------------------|


   S  S  S  S  S  S  S  S  S  S  S  S  S  S
--18-16-14----14------------------------------|
-----------18----18-16-14-16-14---------------|
--------------------------------16-15-16-15---|
--------------------------------------------1-|
----------------------------------------------|
----------------------------------------------|


   Q      E   S  S  E   E   Q
---------18--16-14-----14--14~----||
-------------------16-------------||
----------------------------------||
--16~-----------------------------||
----------------------------------||
----------------------------------||


Duration Legend
---------------
W - whole
H - half
Q - quarter
E - 8th
S - 16th
T - 32nd
X - 64th
. - note dotted
|-n-|  - n-tuplets


Tablature Legend
----------------
L - tied note
x - dead note
g - grace note
(n) - ghost note
> - accentuded note
NH - natural harmonic
AH - artificial harmonic
TH - tapped harmonic
SH - semi harmonic
PH - pitch harmonic
h - hammer on
p - pull off
b - bend
br - bendRelease
pb - preBend
pbr - preBendRelease
brb - bendReleaseBend
\n/ - tremolo bar dip
\n - tremolo bar dive
-/n - tremolo bar Release up
/n\ - tremolo bar inverted dip
/n - tremolo bar return
-\n - tremolo bar Release down
S - shift slide
s - legato slide
/ -  slide into from below or out of upwards
\ -  slide into from above or out of downwards
~ - vibrato
W - wide vibrato
tr - trill
TP - tremolo picking
T - tapping
S - slap
P - pop
< - fade in
^ - brush up
v - brush down
comments
print report bad tab
I want to post or [tab]
guest
You may want to rate the tab now too:
select rating
Please do not post tabs as comments. Select "correction" instead!