Oops, an error
Loading. Please wait.

Bulletproof Heart Tab

version 1
version 1

Intro

Solo

Whole song

Interactive

76,216 views 177 this week
15 commentsread comments
1 2 3 4 5
accurate
x 27
add to favorites
launch autoscroll
font size
0
reset
how to read this tab
guitar tuner
Tab Pro tools
  • play this tab
  • loop segment
  • change instrument
  • show fretboard
  • metronome
Autoscroll
slow
fast
+/-
esc
set tempo
stop
Contributor
Tuning
D# G# C# F# A# D#
                             Bulletproof Heart – My Chemical Romance
-------------------------------------------------------------------------------
Tabbed by:Yu Jer:D
Email:

Tuning: Half-Step Down
Intro: Piano

Both Guitars, pre-verse:
eb|---------------------------------------------------------------------------|
Bb|---------------------------------------------------------------------------|
Gb|-------7-55555-777-------7-55555-777-99999-7-55555-777---------------------|
Db|-55555-7-55555-777-55555-7-55555-777-99999-7-55555-777-55555-4-5-----------|
Ab|-55555-5-33333-555-55555-5-33333-555-77777-5-33333-555-55555-4-5-----------|
Eb|-33333-------------33333-------------------------------33333-2-3-----------|

Guitar 1 Verse:
eb|--------------------------------------------------------------|
Bb|--------------------------------------------------------------|
Gb|---12--12--12--12--12--12--12-11-12---------------------------|
Db|-12--12--12--12--10--10--12-----------------------------------|
Ab|--------------------------------------------------------------|
Eb|--------------------------------------------------------------|x3

eb|--------------------------------------------------------------|
Bb|--------------------------------------------------------------|
Gb|---12--12--12--12--12-----------------------------------------|
Db|-12--12--12--12----12-----------------------------------------|
Ab|--------------------------------------------------------------|
Eb|--------------------------------------------------------------|


Guitar 2 Verse will be the pre-verse but palm-muted

Both Guitars, verse part 2:
eb|---------------------------------------------------------------------------|
Bb|---------------------------------------------------------------------------|
Gb|----------55555-777----------55555-777-99999999-55555-777------------------|
Db|-55555555-55555-777-55555555-55555-777-99999999-55555-777-55555-4-5-4------|
Ab|-55555555-33333-555-55555555-33333-555-77777777-33333-555-55555-4-5-4------|
Eb|-33333333-----------33333333------------------------------33333-2-3-2------|

Guitar 1 Pre-chorus: VERY UNSURE!!! I can’t figure the power chords here.
eb|------------------------------------------------------|
Bb|------------------------------------------------------|
Gb|------------5~----------------------------------------|
Db|--2~----2---5~--------2~----5-4-----------------------|
Ab|--2~------0-3~----3-2-2~------------------------------|
Eb|--0~------------------0~------------------------------|

Guitar 2 Pre-Chorus:
eb|--------------------|
Bb|--8-7---------------|
Gb|------7/9-----------|
Db|--------------------|
Ab|--------------------|
Eb|--------------------|x3

Then Both Guitars: Palm-Muted!
eb|---------------------------------------------------------------------------|
Bb|---------------------------------------------------------------------------|
Gb|-55555555-77777777---------------------------------------------------------|
Db|-55555555-77777777---------------------------------------------------------|
Ab|-33333333-55555555---------------------------------------------------------|
Eb|---------------------------------------------------------------------------|
P.M..................

Guitar 3
eb|--------------------|
Bb|--------------------|
Gb|-5~--7~-------------|
Db|-5~--7~-------------|
Ab|-3~--5~-------------|
Eb|--------------------|


Both Guitars, Chorus: 
eb|---------------------------------------------------------------------------|
Bb|---------------------------------------------------------------------------|
Gb|--------------------------------4444-5555555555555555-77777777-88888888----|
Db|-555555555555-4444-222222222222-4444-5555555555555555-77777777-88888888----|
Ab|-555555555555-4444-222222222222-2222-3333333333333333-55555555-66666666----|
Eb|-333333333333-2222-000000000000--------------------------------------------|

eb|---------------------------------------------------------------------------|
Bb|---------------------------------------------------------------------------|
Gb|-------------------------------------5555555555555555-88888888-10101010----|
Db|-222222222222-4444-5555555555555555--5555555555555555-88888888-10101010----|
Ab|-222222222222-4444-5555555555555555--3333333333333333-66666666-88888888----|
Eb|-000000000000-2222-3333333333333333----------------------------------------|

Guitar 1 Solo:
eb|-------------------------------------------17br-15h17p15-14h15p14----20br----------|
Bb|-----------------------------------------------------------------15------19h20p19v-|
Gb|-----------16--14--12--12----------------------------------------------------------|
Db|-1212121212--12--12--12-----11bvr--10-12-5-----------------------------------------|
Ab|-----------------------------------------------------------------------------------|
Eb|-----------------------------------------------------------------------------------|
P.M. . . . . .  .   .   .

eb|------------------------------------------------17b17br17-17p15--15-15~-------|
Bb|-20p19p17--17--------------------------------------------------17-------------|
Gb|---------19-—19p17p16-17p16---------------------------------------------------|
Db|---------------------------19p17-19p17p16—-17v--------------------------------|
Ab|-----------------------------------------17-----------------------------------|
Eb|------------------------------------------------------------------------------|

Guitar 1 Verse:
eb|--------------------------------------------------------------|
Bb|--------------------------------------------------------------|
Gb|---12--12--12--12--12--12--12-11-12---------------------------|
Db|-12--12--12--12--10--10--12-----------------------------------|
Ab|--------------------------------------------------------------|
Eb|--------------------------------------------------------------|x3

eb|--------------------------------------------------------------|
Bb|--------------------------------------------------------------|
Gb|---12--12--12--12--121212121212-------------------------------|
Db|-12--12--12--12----121212121212-------------------------------|
Ab|--------------------------------------------------------------|
Eb|--------------------------------------------------------------|

Guitar 2 Verse will be the pre-verse but palm-muted

Both Guitars, verse part 2:
eb|---------------------------------------------------------------------------|
Bb|---------------------------------------------------------------------------|
Gb|----------55555-777----------55555-777-99999999-55555-777------------------|
Db|-55555555-55555-777-55555555-55555-777-99999999-55555-777-55555-4-5-4------|
Ab|-55555555-33333-555-55555555-33333-555-77777777-33333-555-55555-4-5-4------|
Eb|-33333333-----------33333333------------------------------33333-2-3-2------|


Guitar 1 Pre-chorus: VERY UNSURE!!! I can’t figure the power chords here.
eb|------------------------------------------------------|
Bb|------------------------------------------------------|
Gb|------------5~----------------------------------------|
Db|--2~----2---5~--------7~----5-4-----------------------|
Ab|--2~------0-3~----3-2-7~------------------------------|
Eb|--0~------------------5~------------------------------|

Guitar 2 Pre-Chorus:
eb|--------------------|
Bb|--8-7---------------|
Gb|------7/9-----------|
Db|--------------------|
Ab|--------------------|
Eb|--------------------|x3

Then Both Guitars: Palm-Muted!
eb|---------------------------------------------------------------------------|
Bb|---------------------------------------------------------------------------|
Gb|-55555555-77777777---------------------------------------------------------|
Db|-55555555-77777777---------------------------------------------------------|
Ab|-33333333-55555555---------------------------------------------------------|
Eb|---------------------------------------------------------------------------|
P.M..................

Guitar 3
eb|--------------------|
Bb|--------------------|
Gb|-5~--7~-------------|
Db|-5~--7~-------------|
Ab|-3~--5~-------------|
Eb|--------------------|

Both Guitars, Chorus: 
eb|---------------------------------------------------------------------------|
Bb|---------------------------------------------------------------------------|
Gb|--------------------------------4444-5555555555555555-77777777-88888888----|
Db|-555555555555-4444-222222222222-4444-5555555555555555-77777777-88888888----|
Ab|-555555555555-4444-222222222222-2222-3333333333333333-55555555-66666666----|
Eb|-333333333333-2222-000000000000--------------------------------------------|

eb|---------------------------------------------------------------------------|
Bb|---------------------------------------------------------------------------|
Gb|-------------------------------------5555555555555555-88888888-10101010----|
Db|-222222222222-4444-5555555555555555--5555555555555555-88888888-10101010----|
Ab|-222222222222-4444-5555555555555555--3333333333333333-66666666-88888888----|
Eb|-000000000000-2222-3333333333333333----------------------------------------|

Guitar 1:
eb|--------------------|
Bb|--------------------|
Gb|--------------------|
Db|-5~-----------------|
Ab|-5~-----------------|
Eb|-3~-----------------|

Guitar 2:?????

Bridge:

Both Guitars:
eb|--------------------------------------------------------------------------|
Bb|--------------------------------------------------------------------------|
Gb|----------88888888----------8888------------------------------------------|
Db|-55555555-88888888-55555555-8888-9999-88888888-10101010-------------------|
Ab|-55555555-66666666-55555555-6666-9999-88888888-10101010-------------------|
Eb|-33333333----------33333333------7777-66666666-88888888-------------------|x2

On second repeat of the above line:
Guitar 3:
eb|------------------------17br-----------------------|
Bb|------------------18-20-----20-18-20---------------|
Gb|---------------19---------------------19p17--------|
Db|-----6--8-5---------------------------------20-----|
Ab|-10~-----------------------------------------------|
Eb|---------------------------------------------------|

eb|-20b-20br-18-20-18-17br—18p17----------------------|
Bb|-----------------------------20--------------------|
Gb|---------------------------------------------------|
Db|---------------------------------------------------|
Ab|---------------------------------------------------|
Eb|---------------------------------------------------|

eb|-----------17br-----------------------|
Bb|-----18-20-----20-18-20---------------|
Gb|--19----------------------------------|
Db|--------------------------------------|
Ab|--------------------------------------|
Eb|--------------------------------------|


Chorus variation:

Both Guitars:
eb|---------------------------------------------------------------------------|
Bb|---------------------------------------------------------------------------|
Gb|---------------------------------4444-5555555555555555-77777777-88888888---|
Db|---555555-4444------------222222-4444-5555555555555555-77777777-88888888---|
Ab|---555555-4444------------222222-2222-3333333333333333-55555555-66666666---|
Eb|---333333-2222------------000000-------------------------------------------|
     
eb|-----------------------------------------------------------------|
Bb|-----------------------------------------------------------------|
Gb|-999999999999-7777-555555555555-7777----------44444444-----------|
Db|-999999999999-7777-555555555555-7777-77777777-44444444-----------|
Ab|-777777777777-5555-333333333333-5555-77777777-22222222-----------|
Eb|-------------------------------------55555555--------------------|
            
eb|--------------------------------------------------------------------------|
Bb|--------------------------------------------------------------------------|
Gb|--55555555-77777-7--------------------------------------------------------|
Db|--55555555-77777-7--------------------------------------------------------|
Ab|--33333333-55555-5--------------------------------------------------------|
Eb|--------------------------------------------------------------------------|

After line 1 of Chorus variation:
Guitar 3:
eb|----------------------------------|
Bb|-3~---10-8-7-8----3~---10-8-7-3---|
Gb|----------------------------------|
Db|----------------------------------|
Ab|----------------------------------|
Eb|----------------------------------|

eb|-------------10br----------------------------15br-17b----------17b17b17b17b----|
Bb|-10-12-10-12-----12p10p8---15br-15-15p13h15-----------17p15h17--------------19-|
Gb|-------------------------------------------------------------------------------|
Db|-------------------------------------------------------------------------------|
Ab|-------------------------------------------------------------------------------|
Eb|-------------------------------------------------------------------------------|

Both Guitars, outro:
eb|--------------------------------------------------------------------|
Bb|--------------------------------------------------------------------|
Gb|-------7-55555-777-------7-55555-777-99999-7-55555-777--------------|
Db|-55555-7-55555-777-55555-7-55555-777-99999-7-55555-777-5~-----------|
Ab|-55555-5-33333-555-55555-5-33333-555-77777-5-33333-555-5~-----------|
Eb|-33333-------------33333-------------------------------3~-----------|

Guitar 3:
eb|----------------------------------|
Bb|-20-20-20-20-20-20-20-20-20-------|
Gb|----------------------------------|
Db|----------------------------------|
Ab|----------------------------------|
Eb|----------------------------------|Repeat till end!


This is my first tab. Do feel free to offer suggestions coz there is just too much 
uncertainty in this tab. Thanks and enjoy! :D


************************************

| /   slide up
| \   slide down
| h   hammer-on
| p   pull-off
| ~   vibrato
| +   harmonic
| x   Mute note
| b   Bend
| pb  Pre-bend
| br  Bend release
| pbr Pre-bend release
| brb Bend release bend

************************************
comments
print report bad tab
15 comments total. Showing first comments. show 1 bad comment
+1 reply
hifatpeople wrote on November 26 2010, 12:13 pm

The beginning starts on fret 14 of the 2 smallest strings. I'm no expert at guitar either but u rock.

+8 reply
MusicMan24 wrote on November 26 2010, 07:30 pm

"-1 November 26 2010, 05:40 pm by chromaticvision |
The intro is piano."

Who cares? You can play it on guitar

I want to post or [tab]
guest
You may want to rate the tab now too:
select rating
Please do not post tabs as comments. Select "correction" instead!