Oops, an error
Loading. Please wait.

Bulletproof Heart Tab

version 3
version 3

Whole song

Interactive

13,577 views 24 this week
9 commentsread comments
1 2 3 4 5
accurate
x 7
add to favorites
launch autoscroll
font size
0
reset
how to read this tab
guitar tuner
Tab Pro tools
  • play this tab
  • loop segment
  • change instrument
  • show fretboard
  • metronome
×
Best way to learn
"Bulletproof Heart"
Autoscroll
slow
fast
+/-
esc
set tempo
stop
Contributor
Difficulty
Tuning
intermediate
D# G# C# F# A# D#
-------------------------------------------------------------------------------
                   Bulletproof Heart - My Chemical Romance
-------------------------------------------------------------------------------
Tabbed by: x_hud
Email: x_hud@hotmail.com

*There are many layers to this song, I cannot tab them all by ear yet. Sorry for 
the lack of the solo. 
This is my first attempt at making a tab. Hopefully someone can work off this tab to 
make a better one. :)

Tuning: 1/2 step down

(INTRO: Softly strum these chords. Little to no distortion) 
   GUITAR 1
d#|--------------------------------------------------------------------------|
A#|--------------------------------------------------------------------------|
F#|----------5~----7~----8~--------------------------5~----8~----10~---------|
C#|----------5~----7~----9~--------2~----------5~----5~----9~----10~---------|
G#|-----2~---3~----5~----6~--------2~----------5~----3~----6~----8~----------|
D#|--------------------------------0~----2~----3~----------------------------|
   "I'm who I've got to be".....    "Run Away"...
 
(Main Chord Prog/Riff)              
   BOTH GUITARS  
d#|--------------------------|-----------------------------------------------|
A#|--------------------------|-----------------------------------------------|
F#|---------7-5555-5/777-----|---99999-7-5555-5/777--------------------------|
C#|---55555-7-5555-5/777-(x2)|---99999-7-5555-5/777-55555--4/5---------------|
G#|---55555-5-3333-3/555-----|---77777-5-3333-3/555-55555--4/5---------------|
D#|---33333------------------|----------------------33333--2/3---------------|
 "From Here"!             

(Verse)
   GUITAR 1
d#|-------------------------|------------------------------------------------|
A#|-------------------------|------------------------------------------------|
F#|-------------------------|------------------------------------------------|
C#|----------5555-7777--(x2)|--99999999-5555-7777----------------------------|
G#|-55555555-3333-5555------|--77777777-3333-5555-55555-4/5------------------|
D#|-33333333----------------|---------------------33333-2/3------------------|
    ........ .... ....         ........ .... .... .....
    
   GUITAR 2
d#|-------------------------|------------------------------------------------|
A#|---8-8-8-8-8-8-8-7-8-----|---8-8-8-8-8-8-8-7-8-8-8-8-8--------------------|
F#|----------5-5-7----------|--9-9-9-9-5-5-7---------------------------------|
C#|--5-5-5-5------------(x2)|------------------5-5-5-5-5---------------------|
G#|-------------------------|------------------------------------------------|
D#|-------------------------|------------------------------------------------|
                 
(Verse cont.)
   BOTH GUITARS
d#|------------------------|-------------------------------------------------|
A#|------------------------|-------------------------------------------------|
F#|-----------5555-7777----|--99999999-5555-7777-----------------------------|
C#|--55555555-5555-5555(x2)|--99999999-5555-7777-55555-----------------------|
G#|--55555555-3333-5555----|--77777777-3333-5555-55555-----------------------|
D#|--33333333--------------|---------------------33333-2-3-2~----------------|
                       
(Pre-chorus)
   GUITAR 1
d#|--0~------------------0~--------------------------------------------------|
A#|--0~------------------0~--------------------------------------------------|
F#|--0~--------5~--------0~--------5~--7~------------------------------------|
C#|--2~----2---5~--------2~----5-4-5~--7~------------------------------------|
G#|--2~------2-3~----3-2-2~--------3~--5~------------------------------------|
D#|--0~------------------0~--------------------------------------------------|

   GUITAR 2
d#|--------------------------------------------------------------------------|
A#|--------------------------------------------------------------------------|
F#|--------------------555555555555-4444-------------------------------77----|
C#|--222222222222-4444-555555555555-5555-222222222222-4444-55555555-77777----|
G#|--222222222222-5555-333333333333-2222-222222222222-5555-33333333-55555----|
D#|--000000000000-2222-------------------000000000000-2222-------------------|
 
                                                           ........ ...
(Chorus)
   BOTH GUITARS
d#|--------------------------------------------------------------------------|
A#|--------------------------------------------------------------------------|
F#|---------------------------------4444-5555555555555555-77777777-----------|
G#|--555555555555-4444-222222222222-5555-5555333333333333-77777777-----------|
C#|--555555555555-5555-222222222222-2222-3333333333333333-55555555-----------|
D#|--333333333333-2222-000000000000------------------------------------------|

(Cont.)
d#|--------------------------------------------------------------------------|
A#|--------------------------------------------------------------------------|
F#|--88888888--------------------------------4444-5555555555555555-----------|
C#|--99999999-222222222222-4444-555555555555-5555-5555555555555555-----------|
G#|--66666666-222222222222-5555-555555555555-2222-3333333333333333-----------|
D#|-----------000000000000-2222-333333333333---------------------------------|

(Cont.)
d#|--------------------------------------------------------------------------|
A#|--------------------------------------------------------------------------|
F#|--88888888-101010101010---------------------------------------------------|
G#|--99999999-101010101010---------------------------------------------------|
C#|--66666666-8-8-8-8-8-8----------------------------------------------------|
D#|--------------------------------------------------------------------------|

(Solo) *rhythm only*
   GUITAR 2
d#|--------------------------|-----------------------------------------------|
A#|--------------------------|-----------------------------------------------|
F#|--------7-5555-5/777------|--99999-7-5555-5/777---------------------------|
C#|--55555-7-5555-5/777--(x2)|--99999-7-5555-5/777-55555-4/5-----------------|
G#|--55555-5-3333-3/555------|--77777-5-3333-3/555-55555-4/5-----------------|
D#|--33333-------------------|---------------------33333-2/3-----------------|
                     
(Verse)
   GUITAR 1
d#|-------------------------|------------------------------------------------|
A#|-------------------------|------------------------------------------------|
F#|-------------------------|------------------------------------------------|
C#|----------5555-7777--(x2)|--99999999-5555-7777----------------------------|
G#|-55555555-3333-5555------|--77777777-3333-5555-55555-4/5------------------|
D#|-33333333----------------|---------------------33333-2/3------------------|
    ........ .... ....         ........ .... .... .....
   
   GUITAR 2
d#|-------------------------|------------------------------------------------|
A#|---8-8-8-8-8-8-8-7-8-----|---8-8-8-8-8-8-8-7-8-8-8-8-8--------------------|
F#|----------5-5-7----------|--9-9-9-9-5-5-7---------------------------------|
C#|--5-5-5-5------------(x2)|------------------5-5-5-5-5---------------------|
G#|-------------------------|------------------------------------------------|
D#|-------------------------|------------------------------------------------|
                    
(Verse cont.)
   BOTH GUITARS
d#|------------------------|-------------------------------------------------|
A#|------------------------|-------------------------------------------------|
F#|-----------5555-7777----|--99999999-5555-7777-----------------------------|
C#|--55555555-5555-5555(x2)|--99999999-5555-7777-55555-----------------------|
G#|--55555555-3333-5555----|--77777777-3333-5555-55555-----------------------|
D#|--33333333--------------|---------------------33333-2-3-2~----------------|
                       
(Pre-chorus)
   GUITAR 1
d#|--0~----------------------------------------------------------------------|
A#|--0~----------------------------------------------------------------------|
F#|--0~--------5~------------------5~--7~------------------------------------|
C#|--2~----2---5~--------7~----5-4-5~--7~------------------------------------|
G#|--2~------2-3~----3-2-7~--------3~--5~------------------------------------|
D#|--0~------------------5~--------------------------------------------------|

   GUITAR 2
d#|--------------------------------------------------------------------------|
A#|--------------------------------------------------------------------------|
F#|--------------------555555555555-4444-------------------------------77----|
C#|--222222222222-4444-555555555555-5555-222222222222-4444-55555555-77777----|
G#|--222222222222-5555-333333333333-2222-222222222222-5555-33333333-55555----|
D#|--000000000000-2222-------------------000000000000-2222-------------------|
                                                           ........ ...
(Chorus)
   BOTH GUITARS
d#|--------------------------------------------------------------------------|
A#|--------------------------------------------------------------------------|
F#|---------------------------------4444-5555555555555555-77777777-----------|
C#|--555555555555-4444-222222222222-5555-5555333333333333-77777777-----------|
G#|--555555555555-5555-222222222222-2222-3333333333333333-55555555-----------|
D#|--333333333333-2222-000000000000------------------------------------------|

(Cont.)
d#|--------------------------------------------------------------------------|
A#|--------------------------------------------------------------------------|
F#|--88888888--------------------------------4444-5555555555555555-----------|
C#|--99999999-222222222222-4444-555555555555-5555-5555555555555555-----------|
G#|--66666666-222222222222-5555-555555555555-2222-3333333333333333-----------|
D#|-----------000000000000-2222-333333333333---------------------------------|

(Cont.)
d#|--------------------------------------------------------------------------|
A#|--------------------------------------------------------------------------|
F#|--88888888-101010101010---------------------------------------------------|
C#|--99999999-101010101010---------------------------------------------------|
G#|--66666666-8-8-8-8-8-8----------------------------------------------------|
D#|--------------------------------------------------------------------------|

(Bridge)
   GUITAR 1
d#|--------------------------------------------------------------------------|
A#|--------------------------------------------------------------------------|
F#|--12----8----12----8--4----3--7-------------------------------------------|
C#|--x-----x----x-----x--x----x--x-7-3---------------------------------------|
G#|--10----6----10----6--2----1--5-x-x---------------------------------------|
D#|--------------------------------5-1---------------------------------------|

   GUITAR 2
d#|--------------------------------------------------------------------------|
A#|--------------------------------------------------------------------------|
F#|--------------------------------------------------------------------------|
C#|--5~~~~-------------------------------------------------------------------|
G#|--5~~~~-------------------------------------------------------------------|
D#|--3~~~~-------------------------------------------------------------------|

   BOTH GUITARS
d#|--------------------------------------------------------------------------|
A#|--------------------------------------------------------------------------|
F#|-------12----------------12----------------12----------------12-----------|
C#|-------x-----------------x-----------------x-----------------x------------|
G#|--1010-10-10101010101010-10-10101010101010-10-10101010101010-10-----------|
D#|--------------------------------------------------------------------------|
     . .     . . . . . . .     . . . . . . .     . . . . . . .

d#|--------------------------------------------------------------------------|
A#|--------------------------------------------------------------------------|
F#|---------------10--------10------12~--------------------------------------|
C#|---------------x---------x-------x----------------------------------------|
G#|-1010101010-88-8-8888888-8-88888-10~--------------------------------------|
D#|--------------------------------------------------------------------------|
    . . . . .  ..   .......   .....

d#|--------------------------------------------------------------------------|
A#|--------------------------------------------------------------------------|
F#|----------88888888----------8888---------------77777777-------------------|
C#|-55555555-88888888-55555555-8888-9999-88888888-77777777-(x2)--------------|
G#|-55555555-66666666-55555555-6666-9999-88888888-55555555-------------------|
D#|-33333333----------33333333------7777-66666666----------------------------|

(Chorus)
   BOTH GUITARS
d#|--------------------------------------------------------------------------|
A#|--------------------------------------------------------------------------|
F#|---------------------------------------4444-5555555555555555-77777777-----|
C#|---------555555-4444------------222222-5555-5555555555555555-77777777-----|
G#|---------555555-5555------------222222-2222-3333333333333333-55555555-----|
D#|---------333333-2222------------000000------------------------------------|
   "GRAVITY!"          "MUCH TO ME"  

d#|--------------------------------------------------------------------------|
A#|--------------------------------------------------------------------------|
F#|-88888888-999999999999-7777-555555555555-7777----------44444444-----------|
C#|-99999999-999999999999-7777-555555555555-7777-77777777-44444444-----------|
G#|-66666666-777777777777-5555-333333333333-5555-77777777-22222222-----------|
D#|----------------------------------------------55555555--------------------|
            
d#|--------------------------------------------------------------------------|
A#|--------------------------------------------------------------------------|
F#|--55555555-77777x7--------------------------------------------------------|
C#|--55555555-77777x7--------------------------------------------------------|
G#|--33333333-55555x5--------------------------------------------------------|
D#|--------------------------------------------------------------------------|

(outro)
   BOTH GUITARS  
d#|--------------------------|-----------------------------------------------|
A#|--------------------------|-----------------------------------------------|
F#|---------7-5555-5/777-----|---99999-7-5555-5/777--------------------------|
C#|---55555-7-5555-5/777-(x2)|---99999-7-5555-5/777-5~~~~--------------------|
G#|---55555-5-3333-3/555-----|---77777-5-3333-3/555-5~~~~--------------------|
D#|---33333------------------|----------------------3~~~~--------------------|


************************************

|(x2) play twice
| .   palm-mute
| /   slide up
| \   slide down
| ~   let ring
| x   Mute note

************************************
comments
print report bad tab
9 comments total. Showing first comments.
0 reply
rockspider2 wrote on December 13 2010, 12:11 pm

This is an amazing song. Excellent tab!!! 5/5

-1 reply
jakewynnrocks wrote on December 15 2010, 05:39 pm

its accurate, but they play it in standard, just watch live. otherwise good job!

0 reply
FishFold wrote on December 15 2010, 08:31 pm

There isn't a live video of this song yet. And you can't play this song in standard.

I want to post or [tab]
guest
You may want to rate the tab now too:
select rating
Please do not post tabs as comments. Select "correction" instead!