Oops, an error
Loading. Please wait.

Bulletproof Heart Tab

version 4
version 4

Whole song

Interactive

1,636 views 1 this week
no commentswrite comment
1 2 3 4 5
accurate
x 3
add to favorites
launch autoscroll
font size
0
reset
how to read this tab
guitar tuner
Tab Pro tools
  • play this tab
  • loop segment
  • change instrument
  • show fretboard
  • metronome
×
Best way to learn
"Bulletproof Heart"
Autoscroll
slow
fast
+/-
esc
set tempo
stop
Contributor
Tuning
D A D G B E
Tuning: Drop D

I know that this is probably not the way My Chemical Romance play this song, but 
its definitely a way to play it. 
And yes, I know the solo is missing. ;) 
This is my first tab, so I hope there arent too many mistakes.

Intro 1 (Clean)
e|----------------------|-----------------------|
B|----------------------|-----------------------|
G|----------------------|-----------------------|
D|-4~--1~--9~--11~--12~-|-1~--4~--9~--12~--14~--|
A|-4~--1~--9~--11~--12~-|-1~--4~--9~--12~--14~--|          ~ let ring
D|-4~--1~--9~--11~--12~-|-1~--4~--9~--12~--14~--|

Intro 2 (Distortion)
e|-------------------------------------------------|
B|-------------------------------------------------|
G|---------6--4444-4--666----------4--4444-4--666--|
D|-4444-4--6--4444-4--666--4444-4--4--4444-4--666--|
A|-4444-4--4--2222-2--444--4444-4--6--2222-2--444--|
D|-4444-4------------------4444-4------------------|

e|------------------------------------|
B|------------------------------------|
G|-8888-8--6--4444-4--666-------------|
D|-8888-8--6--4444-4--666--4444-4-3-4-|
A|-6666-6--4--2222-2--444--4444-4-3-4-|
D|-------------------------4444-4-3-4-|

Verse
e|-------------------------------------------------------------------|
B|-------------------------------------------------------------------|
G|-------------------------------------------------------------------|
D|-4----9----11----4----9----11----13----11----9----11----4----3--4--|
A|-4x8--9x4--11x4--4x8--9x4--11x4--13x6--11x2--9x4--11x4--4x6--3--4--|
D|-4----9----11----4----9----11----13----11----9----11----4----3--4--|
 PM.    .     .    .    .    .     .     .     .     .    .    .  .

e|-----------------------------------------------------------|
B|-----------------------------------------------------------|
G|-----------------------------------------------------------|
D|-4----9----11----4----9----11----13----9----11----4----3~--|
A|-4x8--9x4--11x4--4x8--9x4--11x4--13x8--9x4--11x4--4x6--3~--|
D|-4----9----11----4----9----11----13----9----11----4----3~--|

Pre-Chorus 1
e|--------------------------------------------------|
B|--------------------------------------------------|
G|--------------------------------------------------|
D|-4----1-----3----9-----8----1-----3----9----11----|
A|-4x4--1x12--3x4--9x12--8x4--1x12--3x4--9x8--11x6--|
D|-4----1-----3----9-----8----1-----3----9----11----|
 PM.    .     .    .     .    .     .    .    

Chorus
e|----------------------------------------|-------------------------------|
B|----------------------------------------|-------------------------------|
G|----------------------------------------|-------------------------------|
D|-4-----3----1-----8----9-----11----12---|-1-----3----4-----9-----12-----|
A|-4x12--3x4--1x12--8x4--9x16--11x8--12x8-|-1x12--3x4--4x16--9x16--12x16--|
D|-4-----3----1-----8----9-----11----12---|-1-----3----4-----9-----12-----|

Pre-Chorus 2
e|--------------------------------------------------------|
B|--------------------------------------------------------|
G|--------------------------------------------------------|
D|-4~--3~--4~--1-----3----9-----8----6----8----9----11----|
A|-4~--3~--4~--1x12--3x4--9x12--8x4--6x8--8x8--9x8--11x8--|
D|-4~--3~--4~--1-----3----9-----8----6----8----9----11----|
                                            PM .    .

Bridge
e|----------------------------------------------|
B|----------------------------------------------|
G|----------------------------------------------|
D|-4~-------------------------------------------|
A|-4~----9-----5-----9-----5-----9-----8--------|
D|-4~--8----44----88----44----88----88----2-0~--|

e|--------------------------------------|
B|--------------------------------------|
G|--------------------------------------|
D|-4----12----4----12----8----7----9----|
A|-4x8--12x8--4x8--12x4--8x4--7x8--9x8--|
D|-4----12----4----12----8----7----9----|x2

Final Chorus
e|----------|-----------------------------|
B|----------|-----------------------------|
G|----------|-----------------------------|
D|-4----3---|-1----8----9-----11----12----|
A|-4x8--3x4-|-1x8--8x4--9x16--11x8--12x8--|
D|-4----3---|-1----8----9-----11----12----|

e|---------------------------------------------|
B|---------------------------------------------|
G|---------------------------------------------|
D|-1-----11----9-----11----6----8----9----11---|
A|-1x12--11x4--9x12--11x4--6x8--8x8--9x8--11x8-|
D|-1-----11----9-----11----6----8----9----11---|

Outro
e|-------------------------------------------------------------------------|
B|-------------------------------------------------------------------------|
G|---------6--4444-4--666----------4--4444-4--666--8888-8--6--4444-4--666--|
D|-4444-4--6--4444-4--666--4444-4--4--4444-4--666--8888-8--6--4444-4--666--|
A|-4444-4--4--2222-2--444--4444-4--6--2222-2--444--6666-6--4--2222-2--444--|
D|-4444-4------------------4444-4------------------------------------------|

e|-----|
B|-----|
G|-----|
D|-4~--|
A|-4~--|
D|-4~--|

Order of Song:

Intro 1
Intro 2
Verse
Pre-Chorus 1
Chorus
Intro 2 (Solo)
Verse
Pre-Chorus 2
Chorus
Bridge
Final Chorus
Outro
comments
We did not receive enough feedback on this tab! Please rate:
print report bad tab
1 2 3 4 5
I want to post or [tab]
guest
You may want to rate the tab now too:
select rating
Please do not post tabs as comments. Select "correction" instead!