Oops, an error
Loading. Please wait.

Burn Bright Tab

version 1
version 1

Whole song

5,784 views 39 this week
1 commentread comment
1 2 3 4 5
x 6
add to favorites
launch autoscroll
font size
0
reset
how to read this tab
guitar tuner
Autoscroll
slow
fast
+/-
esc
set tempo
stop
Help us to improve Ultimate-Guitar.com Take our survey!
×
Author
Burn Bright- My Chemical Romance

Intro and 1st verse

e|---------------------------------------------------------------------------|
B|--------------14-----------------11----------------------------------------|
G|------11-----------------11-------------------11------13---11--------------|
D|--13------13--------13-------13----------11-------11-----------11----------|
A|---------------------------------------------------------------------------|
E|---------------------------------------------------------------------------|

e|---------------------------------------------------------------------------|
B|--------------11-------------------11--------------------------------------|
G|------11------------------11-----------------------------------------------|
D|--13------13----------12------12-------------------------------------------|
A|---------------------------------------------------------------------------|
E|---------------------------------------------------------------------------|

e|----------------11---------------------------------------------------------|
B|------------14-------------------11----------------------------------------|
G|------11------------------11------------------11------13---11-----13--11---|
D|--13-----13-----------13------13----------11------11-----------11----------|
A|---------------------------------------------------------------------------|
E|---------------------------------------------------------------------------|

e|---------------------------------------------------------------------------|
B|--------------------------------------11-----------------------------------|
G|------11-----13--11-----------11-------------------------------------------|
D|--11------11--------------12------12---------------------------------------|
A|---------------------------------------------------------------------------|
E|---------------------------------------------------------------------------|

e|-----------------11--------------------------------------------------------|
B|-------------14----------11------------------11-----12p11------------------|
G|------11-------------13--------------11-------------------13-11---13-11----|
D|--13-----13----------------------13------13-----------------------------13-|
A|---------------------------------------------------------------------------|
E|---------------------------------------------------------------------------|

e|---------------------------------------------------------------------------|
B|------------11-----------------11------------------------------------------|
G|------11----------------11-------------------------------------------------|
D|---13----13---------12------12---------------------------------------------|
A|---------------------------------------------------------------------------|
E|---------------------------------------------------------------------------|

Pre Chorus


e|---------------------------------------------------------------------------|
B|---------------------------------------------------------------------------|
G|-----8--8--8--8--8--8--8-------8--------8--8--8--8----8--------------------|
D|-----8--8--8--8--8--8--8-----8----------8--8--8--8----8--------------------|
A|-----6--6--6--6--6--6--6---6------------6--6--6--6----6--------------------|
E|---------------------------------------------------------------------------|

Chorus


e|---------------------------------------------------------------------------|
B|---------------------------------------------------------------------------|
G|---------------------------------------------------------------------------|
D|-----9--9--9--9----9--9--9--9-------11-11-11-11---11-11-11-11--------------|
A|-----9--9--9--9----9--9--9--9-------11-11-11-11---11-11-11-11--------------|
E|-----7--7--7--7----7--7--7--7-------9--9--9--9----9--9--9--9---------------|


e|---------------------------------------------------------------------------|
B|---------------------------------------------------------------------------|
G|-----------------------------------11-\--10-\--8--/--11--------------------|
D|----8--8--8--8----8--8--8--8-------x-----x-----x-----x---------------------|x3
A|----8--8--8--8----8--8--8--8-------9--\--8--\--6--/--9---------------------|
E|----6--6--6--6----6--6--6--6-----------------------------------------------|

e|---------------------------------------------------------------------------|
B|---------------------------------------------------------------------------|
G|--------------------------------------------------------------------8------|
D|-----9--9--9--9----9--9--9--9------11-11-11-11----11-11-11-11-------8------|
A|-----9--9--9--9----9--9--9--9------11-11-11-11----11-11-11-11-------6------|
E|-----7--7--7--7----7--7--7--7------9--9--9--9-----9--9--9--9---------------|

Solo


e|---------------------------------------------------------------------------|
B|---------------------------------------------------------------------------|
G|---------------------------------------------------------------------------|
D|-----------8h9p8-8\6--6-6\4--4-4\3-3~~~~3/-8~~8h9p8------------------------|
A|---/6~~~~~~----------------------------------------------------------------|
E|---------------------------------------------------------------------------|

e|---------------------------------------------------------------------------|
B|---------------------------------------------------------------------------|
G|-----8~~~~6-6-6\4-4-4\3--3-3\1-1-1-----------------------------------------|
D|-----------------------------------4-4-4p3\1-0-----------------------------|
A|---------------------------------------------------------------------------|
E|---------------------------------------------------------------------------|

Verse 2


e|---------------------------------------------------------------------------|
B|---------------------------------------------------------------------------|
G|----8--8--8--8--8----11-11-11-11-11----6--6--6--6--6----10-6--6--6--6------|
D|----x--x--x--x--x----x--x--x--x--x-----x--x--x--x--x----x--x--x--x--x------|
A|----6--6--6--6--6----9--9--9--9--9-----4--4--4--4--4----8--4--4--4--4------|
E|---------------------------------------------------------------------------|


e|---------------------------------------------------------------------------|
B|---------------------------------------------------------------------------|
G|----4--4--4--4--4-----15--11-11-11-11---10-10-10-10-10---13-13-13-13-13----|
D|----x--x--x--x--x-----x---x--x--x--x----x--x--x--x--x----x--x--x--x--x-----|x2
A|----2--2--2--2--2-----13--9--9--9--9----8--8--8--8--8----11-11-11-11-11----|
E|---------------------------------------------------------------------------|

Pre Chorus

Chorus

Pre Bridge

e|----------------7--7--7--7--7----------------------------------------------|
B|---------------------------------------------------------------------------|
G|---8--8--8--8---8--8--8--8--8----------------------------------------------|
D|---8--8--8--8--------------------11-11-11-11-11---13\-11-------------------|
A|---6--6--6--6--------------------11-11-11-11-11---13\-11-------------------|
E|---------------------------------9--9--9--9--9----11\-9--------------------|

e|---------------------------------------------------------------------------|
B|---------------------------------------------------------------------------|
G|---------------------------------------8-----------------------------------|
D|---9--9--9--9--9-----8--8--8--8--8-----8-----------------------------------|
A|---9--9--9--9--9-----8--8--8--8--8-----6-----------------------------------|
E|---7--7--7--7--7-----6--6--6--6--6-----------------------------------------|

Bridge

e|---------------------------------------------------------------------------|
B|---------------------------------------------------------------------------|
G|---8-------------6------8------11-----4-----3------8-----6-----------------|
D|---8-x8--6-------6-x8---x-x4---x--x4--4-x8--3-x8---8-x6--6-x6--------------|x2
A|---6-----6--x8---4------6------9------2-----1------6-----4-----------------|
E|---------4-----------------------------------------------------------------|

e|---------------------------------------------------------------------------|
B|---------------------------------------------------------------------------|
G|--15--13--11-10----8--10-6----8\6/8\6/8----11--13-----10-11-13-8-----------|
D|--x---x---x--x-----x--x--x----x-x-x-x-x----x---x------x--x--x--x-----------|
A|--13--11--9--8-----6--8--4----6\4/6\4/6----9---11-----8--9--11-6-----------|
E|---------------------------------------------------------------------------|


Chorus

Pre Chorus

End


************************************

| /   slide up
| \   slide down
| h   hammer-on
| p   pull-off
| ~   vibrato
| +   harmonic
| x   Mute note
| b   Bend
| pb  Pre-bend
| br  Bend release
| pbr Pre-bend release
| brb Bend release bend

************************************
Suggest correction
comments
print report bad tab
1 comment total.
0 reply
antonio.gor 300 Sep 24, 2013 09:29 PM

Great tab!

guest
You may want to rate the tab now too:
select rating
Wanna post a correction for this tab? Suggest correction