Oops, an error
Loading. Please wait.

Burn Bright tab

version 2
version 2

Whole song

260 views 3 this week
no commentswrite comment
1 2 3 4 5
x 3
add to favorites
×
Save as Personal and add changes to this tab that will be seen only by you. Learn more ›
×
You can save this tab as Personal to edit and correct it or add notes. All changes will be seen only by you. Learn more »
launch autoscroll
font size
0
reset
how to read this tab
guitar tuner
edit
Autoscroll
slow
fast
+/-
esc
set tempo
stop
-------------------------------------------------------------------------------
                             BURN BRIGHT - My Chemical Romance
-------------------------------------------------------------------------------
Tabbed by:Minos66
E-mail:

Tuning:Eb

Intro

e|--------10-----------7---------------5-----------------------7-----------7-|
B|----8-----------8---------------8--------8--------------8------------7-----|
G|-9-----9-----9----9----------7------7--------7-------9-----9-------8---8---|
D|---------------------------------------------------------------------------|
A|---------------------------------------------------------------------------|
E|---------------------------------------------------------------------------|

e|--------10---12-------------7------------5--------5------------------------|
B|----8------------------8-------------8------8--------8---------------------|
G|-9----9-------------9----9---------7---7-------7--------7------------------|
D|---------------------------------------------------------------------------|
A|---------------------------------------------------------------------------|
E|---------------------------------------------------------------------------|

e|-----------5---------------------7-----------------------------------------|
B|-----8---------8-----------7-----------------------------------------------|
G|--7-----7--------------8------8--------------------------------------------|
D|---------------------------------------------------------------------------|
A|---------------------------------------------------------------------------|
E|---------------------------------------------------------------------------|

e|-----------10---12------------------------------------8---7---5-----------|
B|-----8---------------------10---12-------------8---------------------------|
G|--9-----9-----------------------------------9-----9------------------------|
D|---------------------------------------------------------------------------|
A|---------------------------------------------------------------------------|
E|---------------------------------------------------------------------------|

e|-----------5---------5------------------------7-----------------7----------|
B|-----8--------8---------8---------------8----------------7-----------------|
G|--7-----7---------7---------7--------9-----9---------8-------8-------------|
D|---------------------------------------------------------------------------|
A|---------------------------------------------------------------------------|
E|---------------------------------------------------------------------------|

PRE CHORUS

e|---------------------------------------------------------------------------|
B|---------------------------------------------------------------------------|
G|---1---1----1-1----1----1--1---------9-----1----1----1--1-----1------------|
D|---2---2----2-2----2----2--2---------------2----2----2--2-----2------------|
A|---2---2----2-2----2----2--2------7--------2----2----2--2-----2------------|
E|---------------------------------------------------------------------------|

CHORUS

e|---------------------------------------------------------------------------|
B|---------------------------------------------------------------------------|
G|--5----------7-----------4---------1--------7------------------------------|
D|--5--x-7-----7---x-9-----4--x-8----2--x-4---7--x-4----------REPEAT TWICE---|
A|--3----------5-----------2---------2--------5------------------------------|
E|---------------------------------------------------------------------------|

e|---------------------------------------------------------------------------|
B|---------------------------------------------------------------------------|
G|--5----------7-----------4---------12--11--9--9---11-----------------------|
D|--5--x-7-----7---x-9-----4--x-7----12--11--9--9---11-----------------------|
A|--3----------5-----------2---------10--9---7--7---9------------------------|
E|---------------------------------------------------------------------------|

e|---------------------------------------------------------------------------|
B|---------------------------------------------------------------------------|
G|--5----------7-------------------------------------------------------------|
D|--5--x-7-----7---x-9-------------------------------------------------------|
A|--3----------5-----------7-------------------------------------------------|
E|---------------------------------------------------------------------------|

SOLO

e|---------------------------------------------------------------------------|
B|---------------------------------------------------------------------------|
G|-----------------------------------------------------9---------------------|
D|-9--10--9--9--7--7--7--5--5--5--4---9---9--9--10--9------------------------|
A|---------------------------------------------------------------------------|
E|---------------------------------------------------------------------------|

e|---------------------------------------------------------------------------|
B|-7--7--5--4br--4--2--0---0-------------------------------------------------|
G|-----------------------------4---4---2---0---------------------------------|
D|---------------------------------------------------------------------------|
A|---------------------------------------------------------------------------|
E|---------------------------------------------------------------------------|

BRIDGE

e|---------------------------------------------------------------------------|
B|---------------------------------------------------------------------------|
G|9--9--9-9----12---12---12-12---12------11--11--11-11---7--7--7-7----11-----|
D|---------------------------------------------------------------------------|
A|7--7--7-7----10---10---10-10---10------9---9---9--9----5--5--5-5----9------|
E|---------------------------------------------------------------------------|

e|---------------------------------------------------------------------------|
B|---------------------------------------------------------------------------|
G|-9--9--9-9---16---16---16-16---16---11--11--11-11---14--14--14-12--14------|
D|---------------------------------------------------------------------------|
A|-7--7--7-7---14---14---14-14---14---9---9---9--9----12--12--12-10--12------|
E|---------------------------------------------------------------------------|

e|---------------------------------------------------------------------------|
B|---------------------------------------------------------------------------|
G|9--9--9-9----12---12---12-12---12------11--11--11-11---7--7--7-7----11-----|
D|---------------------------------------------------------------------------|
A|7--7--7-7----10---10---10-10---10------9---9---9--9----5--5--5-5----9------|
E|---------------------------------------------------------------------------|

e|---------------------------------------------------------------------------|
B|---------------------------------------------------------------------------|
G|-9--9--9-9---16---16---16-16---16---11--11--11-11---14--14--14-14--14------|
D|---------------------------------------------------------------------------|
A|-7--7--7-7---14---14---14-14---14---9---9---9--9----12--12--12-12--12------|
E|---------------------------------------------------------------------------|

PRE CHORUS

e|---------------------------------------------------------------------------|
B|---------------------------------------------------------------------------|
G|---1---1----1-1----1----1--1---------9-----1----1----1--1-----1------------|
D|---2---2----2-2----2----2--2---------------2----2----2--2-----2------------|
A|---2---2----2-2----2----2--2------7--------2----2----2--2-----2------------|
E|---------------------------------------------------------------------------|

CHORUS

e|---------------------------------------------------------------------------|
B|---------------------------------------------------------------------------|
G|--5----------7-----------4---------12--11--9--9---11-----------------------|
D|--5--x-7-----7---x-9-----4--x-8----12--11--9--9---11-----------------------|
A|--3----------5-----------2---------10--9---7--7---9------------------------|
E|---------------------------------------------------------------------------|

e|---------------------------------------------------------------------------|
B|---------------------------------------------------------------------------|
G|--5----------7-----------4---------12--12--12----9---9---------------------|
D|--5--x-7-----7---x-9-----4--x-8----12--12--12----9---9---------------------|
A|--3----------5-----------2---------10--10--10----7---7---------------------|
E|---------------------------------------------------------------------------|

e|---------------------------------------------------------------------------|
B|---------------------------------------------------------------------------|
G|--5----------7-----------4---------12--11--9--9---11-----------------------|
D|--5--x-7-----7---x-9-----4--x-8----12--11--9--9---11-----------------------|
A|--3----------5-----------2---------10--9---7--7---9------------------------|
E|---------------------------------------------------------------------------|

e|---------------------------------------------------------------------------|
B|---------------------------------------------------------------------------|
G|--5----------7-----------9-------------------------------------------------|
D|--5--x-7-----7---x-9-----9-------------------------------------------------|
A|--3----------5-----------7-------------------------------------------------|
E|---------------------------------------------------------------------------|

acoustic fill

e|----------------------------------------------------------------12---------|
B|----------------------------------------------------------------12---------|
G|-----NOT DONE YET SORRY-----------------------------------------12---------|
D|----------------------------------------------------------------12---------|
A|---------------------------------------------------------------------------|
E|-------------------------------------------------------------HARMONIC------|

PRE OUTRO

e|---------------------------------------------------------------------------|
B|---------------------------------------------------------------------------|
G|--9---------------7------9-9-9---7-7-7---5-------8------9-------7----------|
D|--9-X 8---7-------7-X 8--9-9-9---7-7-7---5-X 8 --9--x7--9--x12--7-x4-------| x2
A|--7-------7-X 8---5------7-7-7---5-5-5---3-------6------7-------5----------|
E|----------5----------------------------------------------------------------|

OUTRO

e|---------------------------------------------------------------------------|
B|---------------------------------------------------------------------------|
G|---------------------------------------------------------------------------|
D|---------------------------------------------------------------------------|  X3
A|-2--2--2--2--4--4--4--4--5--5--5--5--7--7--7--7----------------------------|
E|-0--0--0--0--2--2--2--2--3--3--3--3--5--5--5--5----------------------------| 

e|---------------------------------------------------------------------------|
B|---------------------------------------------------------------------------|
G|---------------------------------------------------------------------------|
D|-------------------------------------9--9--9--9----------------------------|
A|-4--4--4--4--5--5--5--5--7--7--7--7--7--7--7--7----------------------------|
E|-2--2--2--2--3--3--3--3--5--5--5--5----------------------------------------|

CHORUS

e|---------------------------------------------------------------------------|
B|---------------------------------------------------------------------------|
G|--5----------7-----------4---------12--11--9--9---11-----------------------|
D|--5--x-7-----7---x-9-----4--x-8----12--11--9--9---11-----------------------|
A|--3----------5-----------2---------10--9---7--7---9------------------------|
E|---------------------------------------------------------------------------|

e|---------------------------------------------------------------------------|
B|---------------------------------------------------------------------------|
G|--5----------7-----------4---------12--12--12----9---9---------------------|
D|--5--x-7-----7---x-9-----4--x-8----12--12--12----9---9---------------------|
A|--3----------5-----------2---------10--10--10----7---7---------------------|
E|---------------------------------------------------------------------------|

e|---------------------------------------------------------------------------|
B|---------------------------------------------------------------------------|
G|--5----------7-----------4---------12--11--9--9---11-----------------------|
D|--5--x-7-----7---x-9-----4--x-8----12--11--9--9---11-----------------------|
A|--3----------5-----------2---------10--9---7--7---9------------------------|
E|---------------------------------------------------------------------------|

e|---------------------------------------------------------------------------|
B|---------------------------------------------------------------------------|
G|--5----------7-------------------------------------------------------------|
D|--5--x-7-----7---x-9-------------------------------------------------------|
A|--3----------5-------------------------------------------------------------|
E|---------------------------------------------------------------------------|

e|---------------------------------------------------------------------------|
B|---------------------------------------------------------------------------|
G|---1---1----1-1----1----1--1---------9-----1----1----1--1-----1------------|
D|---2---2----2-2----2----2--2---------------2----2----2--2-----2------------|
A|---2---2----2-2----2----2--2------7--------2----2----2--2-----2------------|
E|---------------------------------------------------------------------------|



************************************

| /   slide up
| \   slide down
| h   hammer-on
| p   pull-off
| ~   vibrato
| +   harmonic
| x   Mute note
| b   Bend
| pb  Pre-bend
| br  Bend release
| pbr Pre-bend release
| brb Bend release bend

************************************

            
            
Suggest correction
Creating personal tab
Creating personal tab
You can edit any tab online and save it as your Personal.

You can edit, replace or remove any tab part or add personal notes – all changes will be seen only by you.

Personal tabs can be accessed anytime from any device, even offline.
Learn more »
Give kudos to tab author, rate the tab!
1 2 3 4 5
comments
print report bad tab
guest
You may want to rate the tab now too:
select rating
Wanna post a correction for this tab? Suggest correction