Oops, an error
Loading. Please wait.

Bury Me In Black Bass Tab

version 1
version 1

Whole song

Interactive

2,060 views 1 this week
no commentswrite comment
1 2 3 4 5
please rate
add to favorites
launch autoscroll
font size
0
reset
guitar tuner
Tab Pro tools
  • play this tab
  • loop segment
  • change instrument
  • show fretboard
  • metronome
×
Best way to learn
"Bury Me In Black"
Autoscroll
slow
fast
+/-
esc
set tempo
stop
Contributor
+++++++++++++++++++++++++++++++++++++++++++++++++++++++++++++++++++++++++++++++
Bury Me in Black - My Chemical Romance
+++++++++++++++++++++++++++++++++++++++++++++++++++++++++++++++++++++++++++++++

Origionally tabbed by : Tyler

Song: Bury Me in Black
Artist: My Chemical Romance
Album: Three Cheers for Sweet Revenge (Special Bonus Track)
Tuning: Dropped D


/ = Slide Up
\ = Slide Down


Intro

G -------|
D -------|
A -------|
D -5-6-7-|

Bass breaks and comes in at 00:18


Verse

G --------------------------------|
D --------------------------------|
A --------------------------------|
D 77777777777777773333333355555555

G --------------------------------|
D --------------------------------|
A --------------------------------|
D 77777777999999993333333355555555

G --------------------------------|
D --------------------------------|
A --------------------------------|
D 77777777777777773333333355555555

G --------------------------------|
D --------------------------------|
A --------------------------------|
D 77777777999999993333333355555555


Chorus

G ------------------------|
D ------------------------|
A -------3333333355555555-|
D -2--2-------------------|

G ------------------------|
D ------------------------|
A -------33333333-7-5-3-2-|
D -2--2-------------------|


Bridge 1

G -----------------|
D -----------------|
A -----------------|
D 77777777777777/10

G -----------------|
D -----------------|
A -----------------|
D 77777777777777/10

G ----------------------------------------|
D ----------------------------------------|
A --------------------7777-5555-3333-2222-|
D 77777777777777-9-10---------------------|


Verse


2nd Chorus

G ------------------------|
D ------------------------|
A -------3333333355555555-|
D -2--2-------------------|

G --------------------|
D --------------------|
A -------33333333-----|
D -2--2-----------1-2-|


Pause until 01:20

Bridge 2

G -------|
D -------|
A -------|
D 222-3-5

G --------------------------|
D --------------------------|
A --------------------------|
D 222---222---222---222-3-5-|

G --------------------------------|
D --------------------------------|
A --------------------------------|
D 222-2/8-222-3-5-222-2/8-222-3-5-|

G --------------------------------|
D --------------------------------|
A --------------------------------|
D 222-2/8-222-3-5-222-2/8-222-3-5-|

G --------------------------------|
D --------------------------------|
A --------------------------------|
D 222-2/8-222-2/6-222-2/8-222-2/6-|

G ------------------------|
D ------------------------|
A ------------------------|
D 222-2/8-222-2/6-222-5-6-|


Final Verse

G --------------------------------|
D --------------------------------|     (x3)
A --------------------------------|
D 7(x16)-2(x16)-3(x16)-5(x16------|

G ------------------------------------|
D ------------------------------------|
A ------------------------------------|
D 7(x32)-9(x8)-10(x16)-12(x8)-14(x16--|

G -------------------------------|
D -------------------------------|
A -------------------------------|
D (14\)7-2-3--7-2-33--7-2-3--7-2-|

G ------------------------------------|
D ------------------------------------|
A ------------------------------------|
D 77777777-22222222-77777777-22222222-|

G -----------------------------|
D -----------------------------|
A -----------------777-555-333-|
D 7777777777777777-------------|

+++++++++++++++++++++++++++++++++++++++++++++++++++++++++++++++++++++++++++++
comments
We did not receive enough feedback on this tab! Please rate:
print report bad tab
1 2 3 4 5
I want to post or [tab]
guest
You may want to rate the tab now too:
select rating
Please do not post tabs as comments. Select "correction" instead!