Oops, an error
Loading. Please wait.

Bury Me In Black Tab

version 2
version 2

Whole song

Interactive

10,376 views 18 this week
19 commentsread comments
1 2 3 4 5
x 17
add to favorites
launch autoscroll
font size
0
reset
how to read this tab
guitar tuner
Autoscroll
slow
fast
+/-
esc
set tempo
stop
Help us to improve Ultimate-Guitar.com Take our survey!
×
Author
Difficulty
intermediate
Bury Me In Black - My Chemical Romance

Tabbed by: BDonGraffiti
Email: SprtXplrer@aol.com

Tuning: Standard

Intro: Guitar 1 (Ray,left ear)
e|---|---------------------------------------------------------------------|
B|---|--------------------------repeat-once--------------------------------|
G|---|---------------------------------------------------------------------|
D|-56|---------------------------------------------------------------------|
A|-56|--3h7----8---------3h7----8-----5~--3h7----8-----8~--3h7----8------8-|
E|-34|57---5578-557788~57---5578-55778--57---5578-55778--57---5578-557788--|
PM    ..   .... .....  ..   .... .....  ..   .... .....  ..   .... ......

Intro: Guitar 2 (Frank, right ear)repeat fig 1 after fig 2
e|----|---------------------------|-----------------------------|
B|----|---------figure-1----------|-----------------------------|
G|----|14-14-14-14-14141414-121212|14-14-14-14-1414141416161616-|
D|-567|-x--x--x--x--x-x-x-x--x-x-x|-x--x--x--x--x-x-x-x-x-x-x-x-|
A|-567|12-12-12-12-12121212-121212|12-12-12-12-1212121214141414-|
E|-345|---------------------------|-----------------------------|

Intro: Guitar 2 ends with
e|-------------------------------------|
B|-------------------------------------|
G|-12/141414-14/161616-16/171717-17/19-|
D|--x--x-x-x--x--x-x-x--x--x-x-x--x--x-|
A|-10-121212-12-141414-14-151515-15-17-|
E|-------------------------------------|

Verse 1: Guitar 1 (prt 1)
e|-----------------------------------------------------------|
B|-----------------------------------------------------------|
G|-----------------------------------------------------------|repeat
D|-777777777777777333333355555557777777777777733333335555555-|
A|-777777777777777333333355555557777777777777733333335555555-|
E|-555555555555555111111133333335555500000000011111113333333-|

Verse 1: Guitar 2 (prt 1)
e|----------------------------------------------------------------------|
B|----------------------------------------------------------------------|
G|----------------------------------------------------------------------|
D|-77777999910101010101033333522222227777799991010101012121212121210910-|
A|-xxxxxxxxx-x-x-x-x-x-xxxxxxx2222222xxxxxxxxxxxxx-x-x-x-x-x-x-x-x-xx-x-|
E|-555557777-8-8-8-8-8-81111130000000555557777-8-8-8-8101010101010-87-8-|

Verse 1: Guitar 2(prt 1 con't)
e|---------------------------------------------------------|
B|---------------------------------------------------------|
G|-999991099999995555574444444-----------------------------|
D|-xxxxx-xxxxxxxxxxxxxxxxxxxxx7777799991010101010103333352-|
A|-77777-877777773333352222222xxxxxxxxx-x-x-x-x-x-xxxxxxx2-|
E|----------------------------555557777-8-8-8-8-8-81111130-|

Verse 1: Guitar 1 (prt 2)
e|-----------------------------------------------------------------------|
B|-----------------------------------------------------------------------|
G|-------------------55555554444444-------------------5555555------------|
D|-2-22-----2-22-----xxxxxxxxxxxxxx-2-22-----2-22-----xxxxxxx------------|
A|-2-22-3h5-2-22-3h5-33333332222222-2-22-3h5-2-22-3h5-3333333-1087-------|
E|-0-00-----0-00--------------------0-00-----0-00-----------------108754-|
PM   ..       ..                      ..       ..              ..  .....

Verse 1: Guitar 2 (prt 2)
e|----------------------------------------------------|
B|---4*-----------------------4*----------------------|
G|-------5*555557774444444--------5*5555555-----------|
D|-2---2---xxxxxxxxxxxxxxx-2----2---xxxxxxx-----xxx10-|
A|-2---2---333335552222222-2----2---3333333-1087xxx-x-|
E|-0---0-------------------0----0---------------xxx-8-|

Pre-Verse: Guitar 1 plays intro and ends with
e|---------------------|
B|---------------------|
G|---------------------|
D|---------------------|
A|-101210-8108-787-575-|
E|---------------------|

Pre-Verse: Guitar 2
e|----------------------------------------------------------------|
B|----------------------------------------------------------------|
G|-------------------------------7--------------9-----------------|
D|-77xxxxxx77x7xx1077xxxxxx77x7xx777xxxxxx77x7xx9-----------------|
A|-77xxxxxx77x7xx1077xxxxxx77x7xx577xxxxxx77x7xx7-787-575-353-232-|
E|-55xxxxxx55x5xx-855xxxxxx55x5xx-55xxxxxx55x5xx------------------|

Guitar 1 and 2 both play 1 verse prt 1 and 2

After 2nd Verse: Guitar1 (repeat fig1 after fig 2 then end fig1 w/ fig3)
e|-------------------------|--------|----------|
B|--------figure-1---------|--fig-2-|---fig3---|repeat fig 1 w/ fig 3
G|-------------------------|--------|----------|3 times
D|-222-----222-----222-----|222-----|-22222332-|
A|-222-858~222-737~222-858~|222-735~|-22222332-|
E|-000-----000-----000-----|000-----|-00000110-|
PM ...     ...     ...      ...       .....

After 2nd Verse: Guitar 2 repeat fg1 after fg2 4x then play fig3 4x
e|P|---|fg2|-------fig3----------|                                 B|A|fg1|505|------55----55----55-|
G|U|---|---|------33----44----33-|
D|S|222|---|-2222---2222--2222---|
A|E|222|---|-2222---2222--2222---|
E|-|000|---|-0000---0000--0000---|
PM  ...      ....   ....  ....

Bridge-ish thing: Guitar 1 play fig2 4x
e|---------------------------------------|---------------------------------|
B|---------------fig1--------------------|----------------fig2-------------|
G|---------------------------------------|---------------------------------|
D|-567777777777777773-3-3-3-3-3-5-5-5-5-5|777777777777772222222233333355555|
A|-56777777777777777--3-3-3-3-3-5-5-5-5-5|777777777777772222222233333355555|
E|-34555555555555555--1-1-1-1-1-3-3-3-3-3|555555555555550000000011111133333|

Bride-ish thing: Guitar 2 (these are just the power chords, just figure out the struming 
play fig 1 twice
e|-------------------|-------------------------------------|---------|
B|------fig-1--------|-------------------------------------|15-17-18-|
G|---------5-7-9-10-7|-12-10-9-12-10-9-12-16-16-17-19-17-16|-x--x--x-|
D|-7-9-5-7-x-x-x--x-x|--x--x-x--x--x-x--x--x--x--x--x--x--x|12-14-15-|
A|-x-x-x-x-3-5-7--8-5|-10--8-7-10--8-7-10-14-14-15-17-15-14|---------|
E|-5-7-3-5-----------|-------------------------------------|---------|

Outro: Guitar 1 play 8x
e|------------|
B|------------|
G|-5555-------|
D|-7777222223-|
A|-7777222223-|
E|-5555000001-|

Outro: Guitar 2
e|---------|    |----------------|
B|---------|    |----------------|
G|-99944445|play|----------------|
D|-xxxxxxxx| 7x |----------------|
A|-77722223|    |-787~-575~-353~-|
E|---------|    |----------------|

| /  slide up
|   slide down
| h  hammer-on
| p  pull-off
| ~  vibrato
| * harmonic
| x  mute note
| .  palm mute
Suggest correction
comments
print report bad tab
19 comments total. Showing first comments.
0 reply
alex alvarez 833 Apr 11, 2006 09:10 AM

****,dude thanx !!!!!

0 reply
alex alvarez 833 Apr 11, 2006 09:15 AM

rell good

0 reply
BDonGraffiti 190 Apr 11, 2006 11:47 AM

you're welcome

guest
You may want to rate the tab now too:
select rating
Wanna post a correction for this tab? Suggest correction