Oops, an error
Loading. Please wait.

Cancer Tab

version 1
version 1

Whole song

Interactive

11,961 views 27 this week
12 commentsread comments
1 2 3 4 5
worth learning
x 6
add to favorites
launch autoscroll
font size
0
reset
how to read this tab
guitar tuner
Autoscroll
slow
fast
+/-
esc
set tempo
stop
Help us to improve Ultimate-Guitar.com Take our survey!
×
Author
Difficulty
novice
I have never seen this song played live, but I have listened to the live version. The 
song is played clean, live.


-||INTRO||-

e|----------------------------------|
B|----------------------------------|
G|9-9-/8-88/111111/9-99-------------|
D|9-99/8-88/111111/9-99-9-9-999999--|
A|7-77/6-66/-9-9-9/7-77-9-9-999999--|
E|----------------------7-7-777777--| x2


-||VERSE||-

e|----------------------------------------------|
B|----------------------------------------------|
G|9-9-999999------------6-6-666666//------------|
D|9-9-999999-7-7-777777-6-6-666666//7-7-777777--|
A|7-7-777777-7-7-777777-4-4-444444//7-7-777777--|
E|-----------9-9-999999-----------//5-5-555555--| x2


-||PRE-CHORUS||-

e|--------------------------------------------------|
B|--------------------------------------------------|
G|--------------4-4-44-5-5-55-6-6-666666-5-5-555555-|
D|4-4-44-2-2-22-4-4-44-5-5-55-6-6-666666-5-5-555555-|
A|4-4-44-2-2-22-2-2-22-3-3-33-4-4-444444-3-3-333333-|
E|2-2-22-0-0-00-------------------------------------|


-||CHORUS||-

e|------------------------------------------------------|
B|------------------------------------------------------|
G|----------------4-4-4-4-4-4-4-4-9-9-999999-9-9-999999-|
D|4-4-4-4-4-4-4-4-4-4-4-4-4-4-4-4-9-9-999999-9-9-999999-|
A|4-4-4-4-4-4-4-4-2-2-2-2-2-2-2-2-7-7-777777-7-7-777777-|
E|2-2-2-2-2-2-2-2---------------------------------------|


-[[REPEAT VERSE]]-
-[[REPEAT PRE-CHORUS]]-


-||BRIDGE||- (I'm not quite 92% sure about this)

e|--------------------------------------------------------------|
B|--------------------------------------------------------------|
G|-6-6-666666-5-5-555555------------4-4-4444-5-5-555-6-6-666666-|
D|-6-6-666666-5-5-555555-4-4-444444-4-4-4444-5-5-555-6-6-666666-|
A|-4-4-444444-3-3-333333-4-4-444444-2-2-2222-3-3-333-4-4-444444-|
E|-----------------------2-2-222222-----------------------------|

e|-------------------------------------------------------------|
B|-------------------------------------------------------------|
G|------------------------------------------4-4-4-4-4-4-4-4----|
D|-11-1111/101010/8-88/6-66/4-4-4-4-4-4-4-4-4-4-4-4-4-4-4-4----|
A|-11-1111/101010/8-88/6-66/4-4-4-4-4-4-4-4-2-2-2-2-2-2-2-2----|
E|-/9--9-9/-8-8-8/6-66/4-44/2-2-2-2-2-2-2-2--------------------|


( Play slower than before)
e|---------------------------|
B|---------------------------|
G|---------------------------|
D|-11-1111/101010/8-88/6-66--|
A|-11-1111/101010/8-88/6-66--|
E|-/9--9-9/-8-8-8/6-66/4-44--|


-||REPEAT CHORUS||-

That's it, enjoy!
Suggest correction
comments
print report bad tab
12 comments total. Showing first comments.
0 reply
SpeedRacerGoGo 70 wrote on September 2 2006, 03:22 pm

looks good, there a few errors but it's good

0 reply
Annie93 10 wrote on September 2 2006, 08:33 pm

-||PRE-CHORUS||-

e|--------------------------------------------------|
B|--------------------------------------------------|
G|--------------4-4-44-5-5-55-6-6-666666-2-2-000000-|
D|4-4-44-2-2-22-4-4-44-5-5-55-6-6-666666-2-2-000000-|
A|4-4-44-2-2-22-2-2-22-3-3-33-4-4-444444-0-0-000000-|
E|2-2-22-0-0-00-------------------------------------|

Yeah, I think I'd play the pre-chorus a bit more like that.

I know there aren't that many power chord changes, but this works. Good job! =]

0 reply
vampansy81 31 wrote on September 2 2006, 10:53 pm

What was I ON when I tabbed this? haha x]

( Play slower than before)
e|---------------------------|
B|---------------------------|
G|---------------------------|
D|-11-1111/101010/8-99/7-77--|
A|-11-1111/101010/8-99/7-77--|
E|-/9--9-9/-8-8-8/7-77/5-55--|


Sorries =[

Try that for the extended chorus in the bridge. I think sounds a lot better than what I had originally tabbed out. =]

guest
You may want to rate the tab now too:
select rating
Please do not post tabs as comments. Select "correction" instead!