Oops, an error
Loading. Please wait.

Cancer Tab

version 2
version 2

Whole song

Interactive

22,879 views 21 this week
28 commentsread comments
1 2 3 4 5
excellent!
x 23
add to favorites
launch autoscroll
font size
0
reset
how to read this tab
guitar tuner
Tab Pro tools
  • play this tab
  • loop segment
  • change instrument
  • show fretboard
  • metronome
×
Best way to learn
"Cancer"
Autoscroll
slow
fast
+/-
esc
set tempo
stop
Contributor
----------------------------------------------------------------------------
                     Cancer(Live) – My Chemical Romance
----------------------------------------------------------------------------
Tabbed by: Jake

I saw them play it live and it sounds pretty good to me. I’m not sure about a couple of parts
Figure out the strumming.
12/27/06 - I changed some chords in the verses,pre chorus,bridges, and the outros.

Tuning: Standard

  Intro 2x
e|-------------------7--7--7--7--------------------------------------------|
B|-------------------7--7--7--7--------------------------------------------|
G|---9---8---11---9--8--8--8--8--------------------------------------------|
D|---9---9---9----9--9--9--9--9--------------------------------------------|
A|---7-7-7-7-7--7-7--9--9--9--9--------------------------------------------|
E|-------------------7--7--7--7--------------------------------------------|

    Verse 2x
e|--0-------------4---------------0----------------------------------------|
B|--0----4-2-4----5---------------1----------------------------------------|
G|--1----4-4-4----6----6-5-4-3----2----------------------------------------|
D|--2----4-4-4----6----x-x-x-x----2----------------------------------------|
A|--2----2-2-2----4----4-3-2-1----0----------------------------------------|
E|--0----------------------------------------------------------------------|

  Pre chorus 1x
e|--0---------------4----5-------------------------------------------------|
B|--2----2----4--4--5----5-------------------------------------------------|
G|--2----3----4--5--6----5-------------------------------------------------|
D|--2----4----4--6--6----7-------------------------------------------------|
A|--0----1----2--3--4----7-------------------------------------------------|
E|-----------------------5-------------------------------------------------|

  Chorus 1x
e|--2----------------------------------------------------------------------|
B|--2----4--5--4-----------------------------------------------------------|
G|--3----4--4--4----9------------------------------------------------------|
D|--4----4--4--4----9------------------------------------------------------|
A|--4----2--2--2----7------------------------------------------------------|
E|--2----------------------------------------------------------------------|

    Verse 2x
e|--0-------------4---------------0----------------------------------------|
B|--0----4-5-4----5---------------1----------------------------------------|
G|--1----4-4-4----6----6-5-4-3----2----------------------------------------|
D|--2----4-4-4----6----x-x-x-x----2----------------------------------------|
A|--2----2-2-2----4----4-3-2-1----0----------------------------------------|
E|--0----------------------------------------------------------------------|

  Pre chorus 1x
e|--0---------------4----5-------------------------------------------------|
B|--2----2----4--4--5----5-------------------------------------------------|
G|--2----3----4--5--6----5-------------------------------------------------|
D|--2----4----4--6--6----7-------------------------------------------------|
A|--0----1----2--3--4----7-------------------------------------------------|
E|-----------------------5-------------------------------------------------|

  Bridge Pt.1 1x
e|------------4------------------------------------------------------------|
B|------------5----------5-------------------------------------------------|
G|-------5----6---6---6--6--6----------------------------------------------|
D|--9----6----6---6---6--6--6----------------------------------------------|
A|--7----3----4---4---2--0--4----------------------------------------------|
E|-----------------------0--4----------------------------------------------|

  Bridge Pt.2 1x
e|--2-------------4--------------------------------------------------------|
B|--2----4--5--4--5---5----------------------------------------------------|
G|--3----4--4--4--6---6---4---3--------------------------------------------|
D|--4----4--4--4--6---6---4---4--------------------------------------------|
A|--4----2--2--2--4---3---2---1--------------------------------------------|
E|--2----------------------------------------------------------------------|

  Outro 1x
e|--2-----------------0~---------------------------------------------------|
B|--2------4--5--4----0~---------------------------------------------------|
G|--3------4--4--4----1~---------------------------------------------------|
D|--4------4--4--4----2~---------------------------------------------------|
A|--4------2--2--2----2~---------------------------------------------------|
E|--2-----------------0~---------------------------------------------------|
comments
print report bad tab
28 comments total. Showing first comments.
+1 reply
f1f2 wrote on September 25 2006, 07:39 am

nice tab but some parts are wrong.

+1 reply
f1f2 wrote on September 25 2006, 08:18 am

no no no no no i'm sorry, actually its perfect!!

0 reply
Donkey Fly wrote on September 25 2006, 10:32 am

:|

I want to post or [tab]
guest
You may want to rate the tab now too:
select rating
Please do not post tabs as comments. Select "correction" instead!