Oops, an error
Loading. Please wait.

Cancer Live Tab

version 3
version 3

Whole song

Interactive

1,697 views 3 this week
2 commentsread comments
1 2 3 4 5
worth learning
x 4
add to favorites
launch autoscroll
font size
0
reset
how to read this tab
guitar tuner
Tab Pro tools
  • play this tab
  • loop segment
  • change instrument
  • show fretboard
  • metronome
Autoscroll
slow
fast
+/-
esc
set tempo
stop
Difficulty
intermediate
Tuning: Standard

  Intro 2x
e|-------------------7--7--7--7--------------------------------------------|
B|-------------------7--7--7--7--------------------------------------------|
G|---9---8---11---9--8--8--8--8--------------------------------------------|
D|---9---9---9----9--9--9--9--9--------------------------------------------|
A|---7-7-7-7-7--7-7--9--9--9--9--------------------------------------------|
E|-------------------7--7--7--7--------------------------------------------|

  Verse 2x
e|--0-----2-----4---------------0------------------------------------------|
B|--0-----2-----5---------------1------------------------------------------|
G|--1-----4-----6---------------2------------------------------------------|
D|--2-----4-----6---------------2------------------------------------------|
A|--2-----2-----4----4-3-2-0----0------------------------------------------|
E|--0----------------------------------------------------------------------|


"Turn away, if you could give me a drink, of water 'cuz my lips are chapped and faded 
my Aunt Marie, help her gather all my things, and burie me in all my favorite colors....."


  Pre chorus
e|--0----2----4----5-------------------------------------------------------|
B|--2----2----5----5-------------------------------------------------------|
G|--2----3----6----5-------------------------------------------------------|
D|--2----4----6----7-------------------------------------------------------|
A|--0----4----4----7-------------------------------------------------------|
E|-------2---------5-------------------------------------------------------|


".......my sisters and my brothers, still, i will not kiss you......"


  Chorus 1x
e|--2----2-----------------------------------------------------------------|
B|--2----4-----------------------------------------------------------------|
G|--3----4--------9--------------------------------------------------------|
D|--4----4--------9--------------------------------------------------------|
A|--4----2--------7--------------------------------------------------------|
E|--2----------------------------------------------------------------------|


".........'cuz the hardest part of this is leaving you."


  Verse 2x
e|--0-----2-----4---------------0------------------------------------------|
B|--0-----2-----5---------------1------------------------------------------|
G|--1-----4-----6---------------2------------------------------------------|
D|--2-----4-----6---------------2------------------------------------------|
A|--2-----2-----4----4-3-2-0----0------------------------------------------|
E|--0----------------------------------------------------------------------|


"....Turn away, 'cuz im aweful just to see, 'cuz all my hairs abandoned all my body, all 
agony, know that i will never marry, baby im just soggy from the chemo.........."


  Pre chorus
e|--0----2----4----5-------------------------------------------------------|
B|--2----2----5----5-------------------------------------------------------|
G|--2----3----6----5-------------------------------------------------------|
D|--2----4----6----7-------------------------------------------------------|
A|--0----4----4----7-------------------------------------------------------|
E|-------2---------5-------------------------------------------------------|

".....and counting down the days to go, its just 11, and i just hope you know......."

  Bridge
e|---2---4---5-------------------------------------------------------------|
B|---2---5---5-------------------------------------------------------------|
G|---3---6---6-------------------------------------------------------------|
D|---4---6---7-------------------------------------------------------------|
A|---4---4---7-------------------------------------------------------------|
E|---2-------5-------------------------------------------------------------|


"......that if you say, goodbye today, ill ask you to be true......"


  Bridge (#2)
e|---2---4---4-------------------------------------------------------------|
B|---2---5---4-------------------------------------------------------------|
G|---3---6---5-------------------------------------------------------------|
D|---4---6---6-------------------------------------------------------------|
A|---4---4---6-------------------------------------------------------------|
E|---2-------4-------------------------------------------------------------|

  Outro 2x
e|--2----------------------------------------------------------------------|
B|--2------4---------------------------------------------------------------|
G|--3------4--------9~-----------------------------------------------------|
D|--4------4--------9~-----------------------------------------------------|
A|--4------2--------7~-----------------------------------------------------|
E|--2----------------------------------------------------------------------|

".....'cuz the hardest part of this is leaving you."
comments
print report bad tab
2 comments total.
0 reply
ed182 wrote on November 13 2006, 11:59 am

nice and sexy

0 reply
Rockin Baller wrote on August 31 2009, 05:32 pm

this is exactly what is played excellent tab it is the exact thing played in the live aol session 5 stars

I want to post or [tab]
guest
You may want to rate the tab now too:
select rating
Please do not post tabs as comments. Select "correction" instead!