Oops, an error
Loading. Please wait.
We have an official Cancer tab made by UG professional guitarists. Check out the tab »
×
2,118 views 1 this week
27 commentsread comments
1 2 3 4 5
x 6
add to favorites
launch autoscroll
font size
0
reset
how to read this tab
guitar tuner
Autoscroll
slow
fast
+/-
esc
set tempo
stop
Author
-------------------------------------------------------------------------------
                             My Chemical Romance - Cancer Live 
-------------------------------------------------------------------------------
Tabbed by: Jeremy Leech
Comments: This is 100% accurate. So enjoy, and if you have any question, just  
leave a comment.

Tuning: Standard

Intro
e|---------------------------------------------------------------------------|
B|---------------------------------------------------------------------------|
G|-9-9-11-9--8-8-8-8---------------------------------------------------------|
D|-9-9-9--9--9-9-9-9------2x-------------------------------------------------|
A|-7-7-7--7--9-9-9-9---------------------------------------------------------|
E|-----------7-7-7-7---------------------------------------------------------|

Verse
e|-0--0--0--0--4--4----------------------------0--0--0--0--------------------|
B|-0--0--0--0--4--4----------------------------1--1--1--1--------------------|
G|-1--1--1--1--4--4--5--5--6--6--6--6----------2--2--2--2--------------------|
D|-2--2--2--2--4--4--4--4--6--6--6--6--4-3-2-0-2--2--2--2---2x---------------|
A|-2--2--2--2--2--2--2--2--4--4--4--4--4-3-2-0-0--0--0--0--------------------|
E|---------------------------------------------------------------------------|

Pre-Chorus
e|-0--0--------------------------------0--0--0-------------------------------|
B|-2--2--------------------------------1--1--1-------------------------------|
G|-2--2--4--4--4--4--5--5--6--6--6--6--2--2--2-------------------------------|
D|-2--2--4--4--4--4--5--5--6--6--6--6--2--2--2-------------------------------|
A|-0--0--1--1--2--2--3--3--4--4--4--4--0--0--0-------------------------------|
E|---------------------------------------------------------------------------|

Chorus
e|---------------------------------------------------------------------------|
B|---------------------------------------------------------------------------|
G|-------------------4--4--4--4--9--9--9--9--9--9--9--9--9--9----------------|
D|-4--4--4--4--4--4--4--4--4--4--9--9--9--9--9--9--9--9--9--9----------------|
A|-4--4--4--4--4--4--2--2--2--2--7--7--7--7--7--7--7--7--7--7----------------|
E|-2--2--2--2--2--2----------------------------------------------------------|

Verse
e|-0--0--0--0--4--4--------------------------------0--0--0--0----------------|
B|-0--0--0--0--4--4--------------------------------1--1--1--1----------------|
G|-1--1--1--1--4--4--5--5--6--6--6--6--------------2--2--2--2----------------|
D|-2--2--2--2--4--4--4--4--6--6--6--6--4--3--2--0--2--2--2--2---2x-----------|
A|-2--2--2--2--2--2--2--2--4--4--4--4--4--3--2--0--0--0--0--0----------------|
E|---------------------------------------------------------------------------|

Pre-Chorus
e|-0--0----------------------------------------------------------------------|
B|-2--2----------------------------------------------------------------------|
G|-2--2--4--4--4--4--5--5--6--6--6--6----------------------------------------|
D|-2--2--4--4--4--4--5--5--6--6--6--6--7--7--7--7----------------------------|
A|-0--0--1--1--2--2--3--3--4--4--4--4--7--7--7--7----------------------------|
E|-------------------------------------5--5--5--5----------------------------|

e|----------------------------------------0--0--0----------------------------|
B|----------------------------------------1--1--1----------------------------|
G|-9--9--9--9--5--5--5--5--6--6--6--6--4--2--2--2----------------------------|
D|-9--9--9--9--5--5--5--5--6--6--6--6--4--2--2--2----------------------------|
A|-7--7--7--7--3--3--3--3--4--4--4--4--2--0--0--0----------------------------|
E|---------------------------------------------------------------------------|

Outro
e|---------------------------------------------------------------------------|
B|---------------------------------------------------------------------------|
G|-------------------4--4--4--4--4--6--6--6--5--5--5--4--4--4--4--4----------|
D|-4--4--4--4--4--4--4--4--4--4--4--6--6--6--5--5--5--4--4--4--4--4----------|
A|-4--4--4--4--4--4--2--2--2--2--2--4--4--4--3--3--3--2--2--2--1--1----------|
E|-2--2--2--2--2--2----------------------------------------------------------|

Outro 2
e|----------------------------------0~---------------------------------------|
B|----------------------------------0~---------------------------------------|
G|-------------------4--4--4--4--4--1~---------------------------------------|
D|-4--4--4--4--4--4--4--4--4--4--4--2~---------------------------------------|
A|-4--4--4--4--4--4--2--2--2--2--2--2~---------------------------------------|
E|-2--2--2--2--2--2----------------------------------------------------------|
Suggest correction
comments
print report bad tab
27 comments total. Showing first comments.
0 reply
vmanoman 659 Dec 22, 2006 01:08 AM

not too acurate

0 reply
ipe_yifei 10 Dec 22, 2006 02:14 AM

i think its not so accurate

0 reply
rock_boy 30 Dec 22, 2006 06:54 AM

well, it is, im not sure about the part where Gerard sings "id ask you to be true" right after that, but other then that, its right!

guest
You may want to rate the tab now too:
select rating
Wanna post a correction for this tab? Suggest correction