Oops, an error
Loading. Please wait.

Cemetery Drive Tab

version 1
version 1

Whole song

Interactive

23,548 views 54 this week
7 commentsread comments
1 2 3 4 5
accurate
x 12
add to favorites
launch autoscroll
font size
0
reset
how to read this tab
guitar tuner
Autoscroll
slow
fast
+/-
esc
set tempo
stop
Help us to improve Ultimate-Guitar.com Take our survey!
×
Author
Difficulty
intermediate
Song: Cemetery Drive
Band: My Chemical Romance
Album: Three Cheers For Sweet Revenge

Key:

*:- Palm Mute
x:- String Mute
~:- Let Ring
/:- Slide
h:- Hammer-on
p:- Palm-mute
<#>:- Natural Harmonic

Gtr I Ray Toro: Standard Tuning (e,B,G,D,A,E)
Gtr II Frank Iero: Standard Tuning (e,B,G,D,A,E)

Verse I Pt I

Gtr I (Repeat throughout verse)

e:|-----------------------------------------|
B:|-----------------------------------------|
G:|-----------------------------------------|
D:|-2h4-4h6-6h7-7h9-6h7--2h4-4h6-6h7p6------|
A:|------------------------------------9-7~-|
E:|-----------------------------------------|

Gtr II (x2)

e:|-------------------------------------------------------------------|
B:|-------------------------------------------------------------------|
G:|-14141414141414141414141414141414-11111111111111111111111111111111-|
D:|--x-x-x-x-x-x-x-x-x-x-x-x-x-x-x-x--x-x-x-x-x-x-x-x-x-x-x-x-x-x-x-x-|
A:|-12121212121212121212121212121212--9-9-9-9-9-9-9-9-9-9-9-9-9-9-9-9-|
E:|-------------------------------------------------------------------|

e:|-----------------------------------------------------------------------|
B:|-----------------------------------------------------------------------|
G:|-1818181818181818181818181818/20/18-1616161616161616161616161616/18/16-|
D:|--x-x-x-x-x-x-x-x-x-x-x-x-x-x--x--x--x-x-x-x-x-x-x-x-x-x-x-x-x-x--x--x-|
A:|-1616161616161616161616161616/18/16-1414141414141414141414141414/16/14-|
E:|-----------------------------------------------------------------------|

Verse I Pt II:

Gtr I carries on with previous riff

Gtr II (x2)

e:|---------------------------------------------------------|
B:|---------------------------------------------------------|
G:|-11-9-11-9-9h11p9-6-7-6~-11-13-13h14p13-11h13p13-9-11-9~-|
D:|---------------------------------------------------------|
A:|---------------------------------------------------------|
E:|---------------------------------------------------------|

Pre-Chorus:

Both Gtrs

e:|---------------------------------|
B:|---------------------------------|
G:|---------------------------------|
D:|-9-9-9-9-9-9-9-9-9-9-9-9-9-9-9-9-|
A:|-9-9-9-9-9-9-9-9-9-9-9-9-9-9-9-9-|
E:|-7-7-7-7-7-7-7-7-7-7-7-7-7-7-7-7-|
PM  * * * * * * * * * * * * * * * *

Chorus:

Gtr I

e:|-----------------------------------------------------------------|
B:|-----------------------------------------------------------------|
G:|-----------------------------------------------------------------|
D:|-4-4-4-4-4-4-4-4-4-4-4-4-4-4-4-4-2-2-2-2-2-2-2-2-2-2-2-2-2-2-2-2-|
A:|-4-4-4-4-4-4-4-4-4-4-4-4-4-4-4-4-2-2-2-2-2-2-2-2-2-2-2-2-2-2-2-2-|
E:|-2-2-2-2-2-2-2-2-2-2-2-2-2-2-2-2-0-0-0-0-0-0-0-0-0-0-0-0-0-0-0-0-|

e:|-----------------------------------------------------------------|
B:|-----------------------------------------------------------------|
G:|-6-6-6-6-6-6-6-6-6-6-6-6-6-6-6-6-4-4-4-4-4-4-4-4-4-4-4-4-4-4-4-4-|
D:|-6-6-6-6-6-6-6-6-6-6-6-6-6-6-6-6-4-4-4-4-4-4-4-4-4-4-4-4-4-4-4-4-|
A:|-4-4-4-4-4-4-4-4-4-4-4-4-4-4-4-4-2-2-2-2-2-2-2-2-2-2-2-2-2-2-2-2-|
E:|-----------------------------------------------------------------|

e:|-----------------------------------------------------------------|
B:|-----------------------------------------------------------------|
G:|-2-2-2-2-2-2-2-2-2-2-2-2-2-2-2-2---------------------------------|
D:|-2-2-2-2-2-2-2-2-2-2-2-2-2-2-2-2-4-4-4-4-4-4-4-4-4-4-4-4-4-4-4-4-|
A:|-0-0-0-0-0-0-0-0-0-0-0-0-0-0-0-0-4-4-4-4-4-4-4-4-4-4-4-4-4-4-4-4-|
E:|---------------------------------2-2-2-2-2-2-2-2-2-2-2-2-2-2-2-2-|

e:|-----------------------------------------------------------------|
B:|-----------------------------------------------------------------|
G:|-6-6-6-6-6-6-6-6-6-6-6-6-6-6-6-6-4-4-4-4-4-4-4-4-4-4-4-4-4-4-4-4-|
D:|-6-6-6-6-6-6-6-6-6-6-6-6-6-6-6-6-4-4-4-4-4-4-4-4-4-4-4-4-4-4-4-4-|
A:|-4-4-4-4-4-4-4-4-4-4-4-4-4-4-4-4-2-2-2-2-2-2-2-2-2-2-2-2-2-2-2-2-|
E:|-----------------------------------------------------------------|

Gtr II

e:|-----------------------------------------------------------------|
B:|-----------------------------------------------------------------|
G:|-----------------------------------------------------------------|
D:|-4-4-4-4-4-4-4-4-4-4-4-4-4-4-4-4-2-2-2-2-2-2-2-2-2-2-2-2-2-2-2-2-|
A:|-4-4-4-4-4-4-4-4-4-4-4-4-4-4-4-4-2-2-2-2-2-2-2-2-2-2-2-2-2-2-2-2-|
E:|-2-2-2-2-2-2-2-2-2-2-2-2-2-2-2-2-0-0-0-0-0-0-0-0-0-0-0-0-0-0-0-0-|

e:|-----------------------------------------------------------------|
B:|-----------------------------------------------------------------|
G:|-6-6-6-6-6-6-6-6-6-6-6-6-6-6-6-6-4-4-4-4/6-6-6-6/8-8-8-8/9-9-9-9-|
D:|-6-6-6-6-6-6-6-6-6-6-6-6-6-6-6-6-x-x-x-x-x-x-x-x-x-x-x-x-x-x-x-x-|
A:|-4-4-4-4-4-4-4-4-4-4-4-4-4-4-4-4-2-2-2-2/4-4-4-4/6-6-6-6/7-7-7-7-|
E:|-----------------------------------------------------------------|

e:|-----------------------------------------------------------------|
B:|-----------------------------------------------------------------|
G:|-2-2-2-2-2-2-2-2-2-2-2-2-2-2-2-2---------------------------------|
D:|-2-2-2-2-2-2-2-2-2-2-2-2-2-2-2-2-4-4-4-4-4-4-4-4-4-4-4-4-4-4-4-4-|
A:|-0-0-0-0-0-0-0-0-0-0-0-0-0-0-0-0-4-4-4-4-4-4-4-4-4-4-4-4-4-4-4-4-|
E:|---------------------------------2-2-2-2-2-2-2-2-2-2-2-2-2-2-2-2-|

e:|-----------------------------------------------------------------|
B:|-----------------------------------------------------------------|
G:|-6-6-6-6-6-6-6-6-6-6-6-6-6-6-6-6-4-4-4-4/6-6-6-6/8-8-8-8/9-9-9-9-|
D:|-6-6-6-6-6-6-6-6-6-6-6-6-6-6-6-6-x-x-x-x-x-x-x-x-x-x-x-x-x-x-x-x-|
A:|-4-4-4-4-4-4-4-4-4-4-4-4-4-4-4-4-2-2-2-2/4-4-4-4/6-6-6-6/7-7-7-7-|
E:|-----------------------------------------------------------------|

Verse II Pt I:

Just repeat Verse I Pt I

Verse II Pt I:

Gtr I repeats verse I

Gtr II

e:|---------------------------------------|
B:|---------------------------------------|
G:|-14~~-13~~-11~~-9~~-11~~-13/14/13/11~~-|
D:|--x----x----x---x----x----x--x--x--x---|
A:|-12~~-11~~--9~~-7~~--9~~-11/12/12/-9~~-|
E:|---------------------------------------|

e:|--------------------------------|
B:|--------------------------------|
G:|-13-14~~-14/16-13-11~~-9~~-11~~-|
D:|--x--x----x--x--x--x---x----x---|
A:|-11-12~~-12/14-11--9~~-7~~--9~~-|
E:|--------------------------------|

Repeat Pre-Chorus

Repeat Chorus

Bridge:

Both Gtrs

e:|-----------------------------------------------------------------|
B:|-----------------------------------------------------------------|
G:|-----------------------------------------------------------------|
D:|-4-4-4-4-4-4-4-4-4-4-4-4-4-4-4-4-2-2-2-2-2-2-2-2-2-2-2-2-2-2-2-2-|
A:|-4-4-4-4-4-4-4-4-4-4-4-4-4-4-4-4-2-2-2-2-2-2-2-2-2-2-2-2-2-2-2-2-|
E:|-2-2-2-2-2-2-2-2-2-2-2-2-2-2-2-2-0-0-0-0-0-0-0-0-0-0-0-0-0-0-0-0-|
PM    * * * * * * * * * * * * * *     * * * * * * * * * * * * * *

e:|-----------------------------------------------------------------|
B:|-----------------------------------------------------------------|
G:|-6-6-6-6-6-6-6-6-6-6-6-6-6-6-6-6-4-4-4-4-4-4-4-4-4-4-4-4-4-4-4-4-|
D:|-6-6-6-6-6-6-6-6-6-6-6-6-6-6-6-6-4-4-4-4-4-4-4-4-4-4-4-4-4-4-4-4-|
A:|-4-4-4-4-4-4-4-4-4-4-4-4-4-4-4-4-2-2-2-2-2-2-2-2-2-2-2-2-2-2-2-2-|
E:|-----------------------------------------------------------------|
PM    * * * * * * * * * * * * * *     * * * * * * * * * * * * * *

e:|-----------------------------------------------------------------|
B:|-----------------------------------------------------------------|
G:|-2-2-2-2-2-2-2-2-2-2-2-2-2-2-2-2---------------------------------|
D:|-2-2-2-2-2-2-2-2-2-2-2-2-2-2-2-2-4-4-4-4-4-4-4-4-4-4-4-4-4-4-4-4-|
A:|-0-0-0-0-0-0-0-0-0-0-0-0-0-0-0-0-4-4-4-4-4-4-4-4-4-4-4-4-4-4-4-4-|
E:|---------------------------------2-2-2-2-2-2-2-2-2-2-2-2-2-2-2-2-|
PM    * * * * * * * * * * * * * *     * * * * * * * * * * * * * *

e:|-----------------------------------------------------------------|
B:|-----------------------------------------------------------------|
G:|-6-6-6-6-6-6-6-6-6-6-6-6-6-6-6-6-4-4-4-4-4-4-4-4-4-4-4-4-4-4-4-4-|
D:|-6-6-6-6-6-6-6-6-6-6-6-6-6-6-6-6-4-4-4-4-4-4-4-4-4-4-4-4-4-4-4-4-|
A:|-4-4-4-4-4-4-4-4-4-4-4-4-4-4-4-4-2-2-2-2-2-2-2-2-2-2-2-2-2-2-2-2-|
E:|-----------------------------------------------------------------|
PM    * * * * * * * * * * * * * *   * * * * * * * * * * * * * * * *

Repeat Chorus

Final Chorus:

Gtr I (x2)

e:|------------------------------------------------------------------------|
B:|-101010101010/9-9-9-9/5-5-5-5-5-5-5-5-101010101010/9-9-9-9/5-5-5-5-5-5-5|
G:|--x-x-x-x-x-x-x-x-x-x-x-x-x-x-x-x-x-x--x-x-x-x-x-x-x-x-x-x-x-x-x-x-x-x-x|
D:|--7-7-7-7-7-7/6-6-6-6/2-2-2-2-2-2-2-2--7-7-7-7-7-7/6-6-6-6/2-2-2-2-2-2-2|
A:|------------------------------------------------------------------------|
E:|------------------------------------------------------------------------|

e:|-----------------------------------------------------------------|
B:|-4-4-4-4-4-4-4-4/5-5-5-5/4-4-4-4---------------------------------|
G:|-x-x-x-x-x-x-x-x-x-x-x-x-x-x-x-x-7-7-7-7/6-6-6-6/4-4-4-4-4-4-4-4-|
D:|-1-1-1-1-1-1-1-1/2-2-2-2/1-1-1-1-x-x-x-x-x-x-x-x-x-x-x-x-x-x-x-x-|
A:|---------------------------------5-5-5-5/4-4-4-4/2-2-2-2-2-2-2-2-|
E:|-----------------------------------------------------------------|

Gtr II

e:|-----------------------------------------------------------------|
B:|-----------------------------------------------------------------|
G:|-----------------------------------------------------------------|
D:|-4-4-4-4-4-4-4-4-4-4-4-4-4-4-4-4-2-2-2-2-2-2-2-2-2-2-2-2-2-2-2-2-|
A:|-4-4-4-4-4-4-4-4-4-4-4-4-4-4-4-4-2-2-2-2-2-2-2-2-2-2-2-2-2-2-2-2-|
E:|-2-2-2-2-2-2-2-2-2-2-2-2-2-2-2-2-0-0-0-0-0-0-0-0-0-0-0-0-0-0-0-0-|

e:|-----------------------------------------------------------------|
B:|-----------------------------------------------------------------|
G:|-6-6-6-6-6-6-6-6-6-6-6-6-6-6-6-6-4-4-4-4-4-4-4-4-4-4-4-4-4-4-4-4-|
D:|-6-6-6-6-6-6-6-6-6-6-6-6-6-6-6-6-4-4-4-4-4-4-4-4-4-4-4-4-4-4-4-4-|
A:|-4-4-4-4-4-4-4-4-4-4-4-4-4-4-4-4-2-2-2-2-2-2-2-2-2-2-2-2-2-2-2-2-|
E:|-----------------------------------------------------------------|

e:|-----------------------------------------------------------------|
B:|-----------------------------------------------------------------|
G:|-2-2-2-2-2-2-2-2-2-2-2-2-2-2-2-2---------------------------------|
D:|-2-2-2-2-2-2-2-2-2-2-2-2-2-2-2-2-4-4-4-4-4-4-4-4-4-4-4-4-4-4-4-4-|
A:|-0-0-0-0-0-0-0-0-0-0-0-0-0-0-0-0-4-4-4-4-4-4-4-4-4-4-4-4-4-4-4-4-|
E:|---------------------------------2-2-2-2-2-2-2-2-2-2-2-2-2-2-2-2-|

e:|-----------------------------------------------------------------|
B:|-----------------------------------------------------------------|
G:|-6-6-6-6-6-6-6-6-6-6-6-6-6-6-6-6-4-4-4-4-4-4-4-4-4-4-4-4-4-4-4-4-|
D:|-6-6-6-6-6-6-6-6-6-6-6-6-6-6-6-6-4-4-4-4-4-4-4-4-4-4-4-4-4-4-4-4-|
A:|-4-4-4-4-4-4-4-4-4-4-4-4-4-4-4-4-2-2-2-2-2-2-2-2-2-2-2-2-2-2-2-2-|
E:|-----------------------------------------------------------------|

Outro:

Gtr I

e:|------------------<12>--------|
B:|-------------<12>------<12>~~-|
G:|-14~~~~~~~~-------------------|
D:|--x---------------------------|
A:|-12~~~~~~~~-------------------|
E:|------------------------------|

Gtr II

e:|-------------------------------------------------------------------|
B:|-------------------------------------------------------------------|
G:|-14~~~~------------------------------------------------------------|
D:|--X----------------------------------------------------------------|
A:|-12~~~~-12/14--11-9~--7-9~~--14/16/14/12~~--12~-12/14--11-9--7-9~~-|
E:|-------------------------------------------------------------------|

e:|-----------|
B:|-----------|
G:|-----------|
D:|-----------|
A:|-7/5/4/2~~-|
E:|-----------|

End on:

Gtr I

e:|---------|
B:|---------|
G:|---------|
D:|-<7>~~~~-|
A:|---------|
E:|---------|

Gtr II 

e:|--------|
B:|--------|
G:|-14~~~~-|
D:|-x------|
A:|-12~~~~-|
E:|--------|
Suggest correction
What's this?
You can suggest a correction to this tab. Community and Mods will review your correction and vote to approve or reject it.
comments
print report bad tab
7 comments total. Showing first comments.
0 reply
bLiNK_gREEn 21 wrote on June 27 2005, 12:00 am

nice tab..... nothin else to say :D

0 reply
bLiNK_gREEn 21 wrote on June 27 2005, 12:00 am

i avhent tried it yet... but it looks like itll sound good :D **** stars

0 reply
mcr_02_fan 87 wrote on September 26 2005, 01:40 pm

nice tabs *****stars good keep it up

guest
You may want to rate the tab now too:
select rating
Please do not post tabs as comments. Select "correction" instead!