Oops, an error
Loading. Please wait.

Cemetery Drive Tab

version 4
version 4

Whole song

Interactive

3,441 views 9 this week
8 commentsread comments
1 2 3 4 5
accurate
x 8
add to favorites
launch autoscroll
font size
0
reset
how to read this tab
guitar tuner
Autoscroll
slow
fast
+/-
esc
set tempo
stop
Help us to improve Ultimate-Guitar.com Take our survey!
×
----------------------------------------------------------------------------
                             Cemetary Drive - My Chemical Romance
----------------------------------------------------------------------------
Tabbed by:Buryme inblack
Email:one-armed.boxer@hotmail.com

Tuning:eBGDAE

Guitar 1: Ray Toro
Guitar 2: Frank Iero
The Strum pattern for guitar 2 in this song is kind of hard to explain so I just
wrote the chords and if you listen to the song it's easy to figure it out.

============================================================================
                              Verse
============================================================================

Guitar 1
Guitar 1 plays this throughout the whole verse
e|-------------------------------------------------------------------------|
B|-------------------------------------------------------------------------|
G|-------------------------------------------------------------------------|
D|----------2h4-4h6-7h9---------2h4-4h6-2h4--------------------------------|
A|--2h3-4h6-------------2h3-4h6--------------------------------------------|
E|-------------------------------------------------------------------------|

Guitar 2 x2
e|-------------------------------------------------------------------------|
B|-------------------------------------------------------------------------|
G|--14--11--18/20--16/18\16------------------------------------------------|
D|--x---x---x--x---x--x--x------------------------------------------------- 
A|--12--9---16/18--14/16\14------------------------------------------------|
E|-------------------------------------------------------------------------|

e|-------------------------------------------------------------------------|
B|-------------------------------------------------------------------------|
G|--14--9-11-9-11-9-6-7-6-13-14-13-14-13-11-13-11-9-11-9-11-9-6-7-6--------|
D|--x----------------------------------------------------------------------|
A|--12---------------------------------------------------------------------|
E|-------------------------------------------------------------------------|

e|-------------------------------------------------------------------------|
B|-------------------------------------------------------------------------|
G|--13-14-13-14-13-11b-11--------------------------------------------------|
D|-------------------------------------------------------------------------|
A|-------------------------------------------------------------------------|
E|-------------------------------------------------------------------------|

============================================================================
                                  Chorus
============================================================================

Guitar 1
e|-------------------------------------------------------------------------|
B|-------------------------------------------------------------------------|
G|--------6--4-------------------------------------------------------------|
D|--4--2--6--4-------------------------------------------------------------|
A|--4--2--4--2-------------------------------------------------------------|
E|--2--0-------------------------------------------------------------------|

Guitar 2
e|-------------------------------------------------------------------------|
B|-------------------------------------------------------------------------|
G|--------6--4--6--8--9----------------------------------------------------|
D|--4--2--6--x--x--x--x----------------------------------------------------|
A|--4--2--4--2--4--6--7----------------------------------------------------|
E|--2--0-------------------------------------------------------------------|

Guitar 1
e|-------------------------------------------------------------------------|
B|-------------------------------------------------------------------------|
G|--------6--4-------------------------------------------------------------|
D|--7--4--6--4-------------------------------------------------------------|
A|--7--4--4--2-------------------------------------------------------------|
E|--5--2-------------------------------------------------------------------|

Guitar 2
e|-------------------------------------------------------------------------|
B|-------------------------------------------------------------------------|
G|--------6--4--6--8--9----------------------------------------------------|
D|--7--4--6--x--x--x--x----------------------------------------------------|
A|--7--4--4--2--4--6--7----------------------------------------------------|
E|--5--2-------------------------------------------------------------------|

============================================================================
                              Verse
============================================================================

Guitar 1
e|-------------------------------------------------------------------------|
B|-------------------------------------------------------------------------|
G|-------------------------------------------------------------------------|
D|----------2h4-4h6-7h9---------4h6-6p4------------------------------------|
A|--2h3-4h6-------------2h3-4h6--------------------------------------------|
E|-------------------------------------------------------------------------|

Guitar 2 x2
e|-------------------------------------------------------------------------|
B|-------------------------------------------------------------------------|
G|--14--11--18/20--16/18\16------------------------------------------------|
D|--x---x---x--x---x--x--x------------------------------------------------- 
A|--12--9---16/18--14/16\14------------------------------------------------|
E|-------------------------------------------------------------------------|

Guitar 2
e|-------------------------------------------------------------------------|
B|-------------------------------------------------------------------------|
G|--14--14-13-11-9-10-11-13-11-9-13-14-16-14-13-11-9-11--------------------|
D|--x---------------------------------------------------11-9---------------|
A|--12---------------------------------------------------------------------|
E|-------------------------------------------------------------------------|

============================================================================
                                     Chorus
============================================================================

Guitar 1
e|-------------------------------------------------------------------------|
B|-------------------------------------------------------------------------|
G|--------6--4-------------------------------------------------------------|
D|--4--2--6--4-------------------------------------------------------------|
A|--4--2--4--2-------------------------------------------------------------|
E|--2--0-------------------------------------------------------------------|

Guitar 2
e|-------------------------------------------------------------------------|
B|-------------------------------------------------------------------------|
G|--------6--4--6--8--9----------------------------------------------------|
D|--4--2--6--x--x--x--x----------------------------------------------------|
A|--4--2--4--2--4--6--7----------------------------------------------------|
E|--2--0-------------------------------------------------------------------|

Guitar 1
e|-------------------------------------------------------------------------|
B|-------------------------------------------------------------------------|
G|--------6--4-------------------------------------------------------------|
D|--7--4--6--4-------------------------------------------------------------|
A|--7--4--4--2-------------------------------------------------------------|
E|--5--2-------------------------------------------------------------------|

Guitar 2
e|-------------------------------------------------------------------------|
B|-------------------------------------------------------------------------|
G|--------6--4--6--8--9----------------------------------------------------|
D|--7--4--6--x--x--x--x----------------------------------------------------|
A|--7--4--4--2--4--6--7----------------------------------------------------|
E|--5--2-------------------------------------------------------------------|

============================================================================
                                    Breakdown
============================================================================  

Guitar 1 x2 palm muted
e|-------------------------------------------------------------------------|
B|-------------------------------------------------------------------------|
G|--------6--4-------------------------------------------------------------|
D|--7--4--6--4-------------------------------------------------------------|
A|--7--4--4--2-------------------------------------------------------------|
E|--5--2-------------------------------------------------------------------|

Guitar 2 x2 palm muted
e|-------------------------------------------------------------------------|
B|-------------------------------------------------------------------------|
G|--------6--4-------------------------------------------------------------|
D|--7--4--6--4-------------------------------------------------------------|
A|--7--4--4--2-------------------------------------------------------------|
E|--5--2-------------------------------------------------------------------|

============================================================================
                                    Last Chorus
============================================================================

Guitar 1
e|-------------------------------------------------------------------------|
B|-------------------------------------------------------------------------|
G|--------6--4-------------------------------------------------------------|
D|--4--2--6--4-------------------------------------------------------------|
A|--4--2--4--2-------------------------------------------------------------|
E|--2--0-------------------------------------------------------------------|

Guitar 2
e|-------------------------------------------------------------------------|
B|-------------------------------------------------------------------------|
G|--------6--4--6--8--9----------------------------------------------------|
D|--4--2--6--x--x--x--x----------------------------------------------------|
A|--4--2--4--2--4--6--7----------------------------------------------------|
E|--2--0-------------------------------------------------------------------|

Guitar 1
e|-------------------------------------------------------------------------|
B|-------------------------------------------------------------------------|
G|--------6--4-------------------------------------------------------------|
D|--7--4--6--4-------------------------------------------------------------|
A|--7--4--4--2-------------------------------------------------------------|
E|--5--2-------------------------------------------------------------------|

Guitar 2
e|-------------------------------------------------------------------------|
B|-------------------------------------------------------------------------|
G|--------6--4--6--8--9----------------------------------------------------|
D|--7--4--6--x--x--x--x----------------------------------------------------|
A|--7--4--4--2--4--6--7----------------------------------------------------|
E|--5--2-------------------------------------------------------------------|

Guitar 1
e|-------------------------------------------------------------------------|
B|-------------------------------------------------------------------------|
G|--------6--4-------------------------------------------------------------|
D|--4--2--6--4-------------------------------------------------------------|
A|--4--2--4--2-------------------------------------------------------------|
E|--2--0-------------------------------------------------------------------|

Guitar 1
e|-------------------------------------------------------------------------|
B|-------------------------------------------------------------------------|
G|--------6--4-------------------------------------------------------------|
D|--7--4--6--4-------------------------------------------------------------|
A|--7--4--4--2-------------------------------------------------------------|
E|--5--2-------------------------------------------------------------------|


Guitar 2 x2
e|-------------------------------------------------------------------------|
B|-------------------------------------------------------------------------|
G|--14--13--9--14--13--9--8--9--11--9--8--9--8--6--4-----------------------|
D|--x---x---x--x---x---x--x--x--x---x--x--x--x--x--x-----------------------|
A|--12--11--7--12--11--7--6--7--9---7--6--7--6--4--2-----------------------|
E|-------------------------------------------------------------------------|

============================================================================
                                    Ending
============================================================================

Guitar 1
e|---------------------12----12~----------------12----12~------------------|
B|------------------------12-----------------------12----------------------|
G|--14~--------------------------------------------------------------------|
D|--x----------------------------------------------------------------------|
A|--12~--------------------------------------------------------------------|
E|-------------------------------------------------------------------------|

Guitar 2
e|-------------------------------------------------------------------------|
B|-------------------------------------------------------------------------|
G|--14--14-13-11-9-10-11-13-11-9-13-14-16-14-13-11-9-11--------------------|
D|--x---------------------------------------------------11-9-7~------------|
A|--12---------------------------------------------------------------------|
E|-------------------------------------------------------------------------|

                  
| /  slide up
| \  slide down
| h  hammer-on
| p  pull-off
| ~  vibrato
| +  harmonic
| x  Mute note
============================================================================
Suggest correction
comments
print report bad tab
8 comments total. Showing first comments.
+1 reply
iminvisible 10 wrote on May 28 2007, 02:14 pm

thank you someone actually put both guitars up i've been waiting for this for like 2 years

0 reply
To The End 271 wrote on May 29 2007, 12:32 am

yes, the intro sounds accurate

0 reply
To The End 271 wrote on June 1 2007, 11:59 pm

actually.. i take it back, i have my doubts about the intro now

guest
You may want to rate the tab now too:
select rating
Please do not post tabs as comments. Select "correction" instead!